Blink 182,The Rock show.
 Tabbed by Reid,[email protected]
  
Intro
---------------------------------------------
---------------------------------------------
-----------------77777777-99999999-----------
7777777777777777-77777777-99999999-----------Repeat x1
7777777777777777-55555555-77777777-----------5555555555555555-----------------------------

Riff1
---------------------------------------------
---------------------------------------------
---------------------------------------------
-2-0---2-0---2-------------------------------
-----4-----4---4-0---------------------------
---------------------------------------------
Verse
-----------------------------------------
-----------------------------------------
------------7-------------9--------------
--7---------7-------------9--------------
--7---------5-------------7--------------   X1
--5--------------------------------------
Do the intro again

Chorus

--------------------------------------
--------------------------------------
--6--7--9-----7-----------------------
--6--7--9--4--7-----------------------repeat x2
--4--5--7--4--5-----------------------
-----------2-------------------------- 
intro/interlude with riff 1 

Verse(but dont repeat)

Chorus

Interlude2
------------------------------------------
--2-----2-----2-----3----2----2---2---3---
-----2------2----2-----2----2---2---2----2  X2
------------------------------------------
------------------------------------------
------------------------------------------

--------------------------------------
--------------------------------------
--------------------7777777777777777--
--4444444444444444--7777777777777777--
--4444444444444444--5555555555555555--
--2222222222222222--------------------

--------------------------------------
--------------------------------------
--------------------99999999--77777777--
--7777777777777777--99999999--77777777--
--7777777777777777--77777777--55555555--
--5555555555555555--------------------

Chorus

Then do the intro and the Riff alota times.

email me if u think something is wrong 
:: Ultimate Guitar Archive :: 
http://www.ultimate-guitar.com 





Текст, аккорды и табулатура для песни "Rock Show (ver 12)", исполняет "Blink 182".
Используемые в песне аккорды можно найти в разделе Как брать аккорды. Аккорды для шестиструнной гитары. Другие песни можно найти на нашем сайте, воспользовавшись алфавитным указателем вверху страницы.


 
Ошибка в тексте? Выделите ошибку и нажмите Ctrl+Enter