Yes. This is the first blink bass tab i have ever seen on the internet. And
Albino´s Punk and Ska Stuff is the only place you can get it, but I´m sure
it will be
stolen and put on every other tab page soon. I did this pretty fast so it
might not be
perfect. well, here it is......

G:-----------------------------------------------------------------
D:-2-2-2-2-2-2-2-2-------------------------------------------------
A:-----------------2-2-2-2-2-2-2-2-4-4-4-4-4-4-4-4-0-0-0-0-0-0-0-0-
E:-----------------------------------------------------------------

G:-----------------------------------------------------------------
D:-----------------------------------------------------------------
A:-----------------2-2-2-2-2-2-2-2-4-4-4-4-4-4-4-4-0-0-0-0-0-0-0-0-
E:-0-0-0-0-0-0-0-0-------------------------------------------------

Chorus
G:--------------------------------
D:--------------------------------
A:------------------------2-2-2-2-
E:2-2-2-2-5-5-5-5-0-0-0-0---------

Thats it. If you want to put this on your page, save it and uplaod it, don´t
link it directly.  And plaese leave my name and the link to my page on it.
Thanx a lot.


Текст, аккорды и табулатура для песни "M&Ms", исполняет "Blink 182".
Используемые в песне аккорды можно найти в разделе Как брать аккорды. Аккорды для шестиструнной гитары. Другие песни можно найти на нашем сайте, воспользовавшись алфавитным указателем вверху страницы.


 
Ошибка в тексте? Выделите ошибку и нажмите Ctrl+Enter