Blink 182 - First Date.
 Tabbed by Mike, [email protected]
  
Here it all is.

Intro
e-0-------------------------------------------x2
B---1---1---3-1---1---3-1---1---3--1---0------
G-----0---------0---------0----------0--(0)---
D---------------------------------------------
A---------------------------------------------
E---------------------------------------------

Guitar Verse
e---------------------------------------------
B---------------------------------------------
G-55-555-55-555-55-555-55-555-55-555-55-555-55

e-------------
B-------------
G-555-55-555--
(continued, from guitar verse)

pre-chorus 
e-------------------------x2
B-------------------------
G-555-444-2-2-2-2---------
D-555-444-2-2-2-2-3-3-5-5-
A-333-222-0-0-0-0-3-3-5-5-
E-----------------1-1-3-3-

chorus 
e--------------------------------------x2
B--------------------------------------
G-555555554444444422222222-------------
D-555555554444444422222222-3-3-5-5-----
A-333333332222222200000000-3-3-5-5-----
E--------------------------1-1-3-3-----

bridge 
e----------------------------------------x2
B----------------------------------------
G-55555555-------------------------------
D-55555555--22222222--33333333--55555555-
A-33333333--22222222--33333333--55555555-
E-----------00000000--11111111--33333333-

e----------------------------------------------x4
B----------------------------------------------
G--555555--999955--1010101055--7777777-7----
D--xxxxxx--xxxx-xx--xxxxxxxx-xx--xxxxxxx-x-----
A--333333--777733--8-8-8-8-55--5555555-5----
E----------------------------------------------

Well there it is. Hope you enjoy it. It was pretty easy to find out. 
:: Ultimate Guitar Archive :: 
http://www.ultimate-guitar.com 





Текст, аккорды и табулатура для песни "First Date (ver 10)", исполняет "Blink 182".
Используемые в песне аккорды можно найти в разделе Как брать аккорды. Аккорды для шестиструнной гитары. Другие песни можно найти на нашем сайте, воспользовавшись алфавитным указателем вверху страницы.


 
Ошибка в тексте? Выделите ошибку и нажмите Ctrl+Enter