Here is the guitar solo for First Date . Im pretty sure this is right but this is only mr 
first time tabbing so dont send me hate mail if it sucks. This solo uses 2 guitars. 
Standard tuning 
pm= palm mute         /=slide

guitar 1 plays this part alone at first , but after 1 time through then guitar 2 comes in, 
but guitar 1 keeps on playing the same riff it started with in the backround . confusing ?
thats what i thought 

guitar 1 w/ distortion
e|-----------------|-----------------|----------------|
B|-----------------|-----------------|----------------|
G|-----------------|-----------------|----------------|
D|-5-5-5-5-5-5-5-5-|-----------------|----------------|
A|-3-3-3-3-3-3-3-3-|-----------------|----------------|
E|-----------------|-0-0-0-0-0-0-0-0-|1-1-1-1-1-1-1-1-|
pm.....................................................

guitar 1 continued w/ distortion
e|-----------------|-----------------|-----------------|
B|-----------------|-----------------|-----------------|
G|-----------------|-----------------|-----------------|
D|-----------------|-----------------|-----------------|
A|-----------------|-3-3-3-3-3-3-3-3-|-----------------|
E|-3-3-3-3-3-3-3-3-|-----------------|-0-0-0-0-0-0-0-0-|
pm......................................................

guitar 1 continued w/ distortion
e|-----------------|-----------------|
B|-----------------|-----------------|
G|-----------------|-----------------|
D|-----------------|-----------------|
A|-----------------|-----------------|
E|-1-1-1-1-1-1-1-1-|-3-3-3-3-3-3-3-3-|
pm....................................

guitar 2 kicks in now , but guitar 1 plays that riff over again in the backround.

guitar 2 w/ distortion
e|-----------------|---------------|-------------------|
B|-----------------|---------------|-------------------|
G|-5-5-5-5-5-5-5-5-|-9-9-9-9/5-5-5-|-10-10-10-10/5-5-5-|
D|-x-x-x-x-x-x-x-x-|-x-x-x-x-x-x-x-|--x--x--x--x-x-x-x-|
A|-3-3-3-3-3-3-3-3-|-7-7-7-7/3-3-3-|--8--8--8--8/3-3-3-|
E|-----------------|---------------|-------------------|

guitar 2 continued w/ distortion
e|-------------------------------|---------------|
B|-------------------------------|---------------|
G|-7-7-7-7-7-7-7-7/5-5-5-5-5-5-5-|-9-9-9-9/5-5-5-|
D|-x-x-x-x-x-x-x-x-x-x-x-x-x-x-x-|-x-x-x-x-x-x-x-|
A|-5-5-5-5-5-5-5-5/3-3-3-3-3-3-3-|-7-7-7-7/3-3-3-|
E|-------------------------------|---------------|

guitar 2 continued w/ distortion
e|-------------------|---------------|
B|-------------------|---------------|
G|-10-10-10-10/5-5-5-|-7-7-7-7-7-7-7-|
D|--x--x--x--x-x-x-x-|-x-x-x-x-x-x-x-|
A|--8--8--8--8/3-3-3-|-5-5-5-5-5-5-5-|
E|-------------------|---------------|

There ya go ! email me at [email protected]
or instant message me at Dookie18269 with any questions or comments.


Текст, аккорды и табулатура для песни "First Date (solo ver 2)", исполняет "Blink 182".
Используемые в песне аккорды можно найти в разделе Как брать аккорды. Аккорды для шестиструнной гитары. Другие песни можно найти на нашем сайте, воспользовавшись алфавитным указателем вверху страницы.


 
Ошибка в тексте? Выделите ошибку и нажмите Ctrl+Enter