-----------------------------------------------------------------------
                      Blink 182 – Feeling This
-----------------------------------------------------------------------
Key:
/    = Slide up
    = Slide down
Pm:  = Palm Muted
This has got an awesome guitar verse riff. This is how I play the song if
I have stuffed up send me an email at [email protected] 

Verse (I’ve got a regret right now…)
E-----------------------------------
B-----------------------------------
G--13-/-15--13-13--13-13--13-/-17--
D--13-/-15--13-13--13-13--13-/-17--	  x8
A--11-/-13--11-11--11-11--11-/-15--
E-----------------------------------

Chorus (Fate, fell, short… - Place, your, hand...)
E-------|---|----------------|---|--------------|
B-------|---|----------------|---|--------------|
G-------|-9-|----------------|-9-|--------------|
D-------|-9-|----------------|-9-|--------------|
A-------|-7-|----------------|-7-|--------------|
E-------|---|----------------|---|--------------|

E--------------------------------------------------
B--------------------------------------------------
G--9-9-9-9--11-11-11-11--13-13-13-13--15-15-15-15--
D--9-9-9-9--11-11-11-11--13-13-13-13--15-15-15-15--
A--7-7-7-7---9--9--9--9--11-11-11-11--13-13-13-13--
E--------------------------------------------------

Verse (Where do we go from here…)
E-----------------------------------
B-----------------------------------
G--13-/-15--13-13--13-13--13-/-17--
D--13-/-15--13-13--13-13--13-/-17--	  x8
A--11-/-13--11-11--11-11--11-/-15--
E-----------------------------------

Chorus (Fate, fell, short… - Place, your, hand…)
E-------|---|----------------|---|--------------|
B-------|---|----------------|---|--------------|
G-------|-9-|----------------|-9-|--------------|
D-------|-9-|----------------|-9-|--------------|
A-------|-7-|----------------|-7-|--------------|
E-------|---|----------------|---|--------------|

Just Drums (This place was never the same again…)

Interlude (Look into the past, and remember to smile…)
E------------------------------------------------------
B------------------------------------------------------
G------------------------------------------------------
D--99999999--------------------------------------------
A--77777777-9999999--11-11-11-11-11-11-11-11-77777777--
E-----------77777777-—9--9--9--9--9--9--9--9-55555555--
Pm: . . . . . . . . . . . . . . . . . . . . . . . . . .

Chorus (Fate, fell, short… - Place, your, hand…)
E-----------------------------------
B-----------------------------------
G----------4-4-4-4-5-5-5-5-2-2-2-2--
D--2-2-2-2-4-4-4-4-5-5-5-5-2-2-2-2--
A--2-2-2-2-2-2-2-2-3-3-3-3-0-0-0-0--
E--0-0-0-0--------------------------


Текст, аккорды и табулатура для песни "Feeling This (ver 13)", исполняет "Blink 182".
Используемые в песне аккорды можно найти в разделе Как брать аккорды. Аккорды для шестиструнной гитары. Другие песни можно найти на нашем сайте, воспользовавшись алфавитным указателем вверху страницы.


 
Ошибка в тексте? Выделите ошибку и нажмите Ctrl+Enter