blink 182 - emo.
 Tabbed by martin grayson [email protected]
  
Artist: Blink 182
Title: Emo

Tabbed By Martin Grayson ([email protected])

Intro 
(Harmonics)

e|------|
b|------|
g|------|
d|------|
a|--7---|
E|------|

e|-------------------------------------------|
b|-------------------------------------------|
g|-------------------------------------------|
d|---7-6-----7-6---------7-6-----7-6---------|
a|-7-------7-----7-9---7-------7-----7-9--7--|
E|-------------------------------------------|


Verse

e|-------------------------------------------|
b|-------------------------------------------|
g|-------------------------------------------|
d|-44444444444--5555555555-------------------|
a|-22222222222--4444444444--777777777777-----|
E|--------------------------555555555555-----|
One more time you will laugh about it

e|-------------------------------------------|
b|-------------------------------------------|
g|-------------------------------------------|
d|-44444444444--5555555555-------------------|
a|-22222222222--4444444444--777777777777-----|
E|--------------------------555555555555-----|         
And he'll never try to give you more

e|-------------------------------------------|
b|-------------------------------------------|
g|-------------------------------------------|
d|---7-6-----7-6---------7-6-----7-6---------|
a|-7-------7-----7-9---7-------7-----7-9--7--|
E|-------------------------------------------|
And I don't care, he is such a dick 
Treats you like you are a stupid whore.



e|-------------------------------------------|
b|-------------------------------------------|
g|-------------------------------------------|
d|-44444444444--5555555555-------------------|
a|-22222222222--4444444444--777777777777-----|
E|--------------------------555555555555-----| 
And it seems like things will never change

e|-------------------------------------------|
b|-------------------------------------------|
g|-------------------------------------------|
d|-44444444444--5555555555-------------------|
a|-22222222222--4444444444--777777777777-----|
E|--------------------------555555555555-----| 
You go on, every cloud is in your way

e|-------------------------------------------|
b|-------------------------------------------|
g|-------------------------------------------|
d|---7-6-----7-6---------7-6-----7-6---------|
a|-7-------7-----7-9---7-------7-----7-9--7--|
E|-------------------------------------------|
And I know you feel empty all the time
You'll never listen to anything that I say


Chorus

e|------|
b|------|
g|------|
d|------|
a|--7---|
E|------|
She's better off sleeping on the floor
'Cause she fell right off when all        
Is said, you know       
It's okay to just want more







e|-------------------------------------------|
b|-------------------------------------------|
g|-------------------------------------------|
d|---7-6-----7-6---------7-6-----7-6---------|
a|-7-------7-----7-9---7-------7-----7-9--7--|
E|-------------------------------------------|


Verse

e|-------------------------------------------|
b|-------------------------------------------|
g|-------------------------------------------|
d|-44444444444--5555555555-------------------|
a|-22222222222--4444444444--777777777777-----|
E|--------------------------555555555555-----| 
Why leave when you claim it is love?

e|-------------------------------------------|
b|-------------------------------------------|
g|-------------------------------------------|
d|-44444444444--5555555555-------------------|
a|-22222222222--4444444444--777777777777-----|
E|--------------------------555555555555-----| 
But why stay when you're not the only one?

e|-------------------------------------------|
b|-------------------------------------------|
g|-------------------------------------------|
d|---7-6-----7-6---------7-6-----7-6---------|
a|-7-------7-----7-9---7-------7-----7-9--7--|
E|-------------------------------------------|
She's proved she's strong
Be brave, be strong.


Chorus

e|------|
b|------|
g|------|
d|------|
a|--7---|
E|------|
She's better off sleeping on the floor 
'Cause she fell right off when all    
Is said, you know        
It's okay to just want more









Bridge

|---------------------|
|---------------------|
|---------------------|
|---------------------|
|--11---12---13---14--|
|---------------------|



Verse

e|-----------------------------------------|
b|-----------------------------------------|
g|-----------------------------------------|
d|-4444-9999-------------------44444444----|
a|-2222-7777-44444444-77777777-22222222----|
E|-----------22222222-55555555-------------|
           She's better off sleeping on the floor

e|-----------------------------------------|
b|-----------------------------------------|
g|-----------------------------------------|
d|-9999-------------------44444444---------|
a|-7777-44444444-77777777-22222222---------|
E|------22222222-55555555------------------|            
She's better off sleeping on the floor 
(Because she fell right off her bed)

e|-----------------------------------------|
b|-----------------------------------------|
g|-----------------------------------------|
d|-9999-------------------44444444---------|
a|-7777-44444444-77777777-22222222---------|
E|------22222222-55555555------------------|  
She's better off sleeping on the floor

e|-----------------------------------------|
b|-----------------------------------------|
g|-----------------------------------------|
d|-9999-------------------44444444---------|
a|-7777-44444444-77777777-22222222---------|
E|------22222222-55555555------------------|            
She's better off sleeping on the floor 
(Because she fell right off her bed)

e|-----------------------------------------|
b|-----------------------------------------|
g|-----------------------------------------|
d|-9999-------------------44444444---------|
a|-7777-44444444-77777777-22222222---------|
E|------22222222-55555555------------------|            
She's better off sleeping on the floor

e|-----------------------------------------|
b|-----------------------------------------|
g|-----------------------------------------|
d|-9999-------------------44444444---------|
a|-7777-44444444-77777777-22222222---------|
E|------22222222-55555555------------------|             
She's better off sleeping on the floor 
(Because she fell right off her bed)

e|-----------------------------------------|
b|-----------------------------------------|
g|-----------------------------------------|
d|-9999-------------------44444444---------|
a|-7777-44444444-77777777-22222222---------|
E|------22222222-55555555------------------|             
She's better off sleeping on the floor

e|-----------------------------------------|
b|-----------------------------------------|
g|-----------------------------------------|
d|-9999-------------------44444444---------|
a|-7777-44444444-77777777-22222222---------|
E|------22222222-55555555------------------|           
She's better off sleeping on the floor 
(Because she fell right off her bed)

 
:: Ultimate Guitar Archive :: 
http://www.ultimate-guitar.com 





Текст, аккорды и табулатура для песни "Emo", исполняет "Blink 182".
Используемые в песне аккорды можно найти в разделе Как брать аккорды. Аккорды для шестиструнной гитары. Другие песни можно найти на нашем сайте, воспользовавшись алфавитным указателем вверху страницы.


Слушать онлайн Emo


Blink-182Emo на Яндекс.Музыке


 
Ошибка в тексте? Выделите ошибку и нажмите Ctrl+Enter