-------------------------------------------------------------------------------
			     Don't Leave Me - Blink 182
-------------------------------------------------------------------------------
Tabbed by: dave
Email: [email protected]

Tuning: Standard

| / = slide up
|  = slide down
| h = hammer-on
| p = pull-off
| ~ = vibrato
| + = harmonic
| P.M. = Mute note

Some parts may seem weird.. but this isn't made up like every other tab
for this song.. this is straight out of the book that i bought for enema
of the state so this is real one..

Intro
e|----------------------------------------------|
B|----------------------------------------------|
G|----------2222-----------7777-----------------|
D|----------2222-----------7777-----------------|
A|-0-0-0-0--0000--0-0-0-0--5555-----------------|
E|----------------------------------------------|
  |-------|       |-------| 
     P.M.            P.M.

e|----------------------------------------------|
B|----------------------------------------------|
G|----------4444--77777--99999------------------|
D|----------4444--77777--99999------------------|
A|-5-5-5-5--2222--55555--77777------------------|
E|----------------------------------------------|
  |-------|
     P.M.

Verse
e|----------------------------------------------|
B|----------------------------------------------|
G|-2~-------------------------------------------|
D|-2~-------------------------------------------|
A|-0~-------------------------------------------|
E|----------------------------------------------|

Chorus Part 1
e|----------------------------------------------|
B|----------------------------------------------|
G|------------------22222--44444--77777--99999--|
D|------------------22222--44444--77777--99999--|
A|-5-5-5-5-5-5-5-5--00000--22222--55555--77777--|
E|----------------------------------------------|
  |---------------|
         P.M.

e|----------------------------------------------|
B|----------------------------------------------|
G|-22222--44444--77777--99999-------------------|
D|-22222--44444--77777--99999-------------------|
A|-00000--22222--55555--77777-------------------|
E|----------------------------------------------|

e|----------------------------------------------|
B|----------------------------------------------|
G|----------22222--44444--77777--99999----------|
D|----------22222--44444--77777--99999----------|
A|-7-7-7-7--00000--22222--55555--77777----------|
E|----------------------------------------------|
  |---------------|
         P.M.

e|----------------------------------------------|
B|----------------------------------------------|
G|-22222--44444--77777--99999-------------------|
D|-22222--44444--77777--99999-------------------|
A|-00000--22222--55555--77777-------------------|
E|----------------------------------------------|

Chorus 1 Ending
e|----------------------------------------------|
B|----------------------------------------------|
G|------------------2222-----------7777---------|
D|------------------2222-----------7777---------|
A|-7-7-7-7-7-7-7-7--0000--0-0-0-0--5555---------|
E|----------------------------------------------|
  |---------------|      |-------|
         P.M.               P.M.

e|----------------------------------------------|
B|----------------------------------------------|
G|----------4444--77777--99999------------------|
D|----------4444--77777--99999------------------|
A|-5-5-5-5--2222--55555--77777------------------|
E|----------------------------------------------|
  |-------|
     P.M.

Interlude
e|----------------------------------------------|
B|-10~------------------------------------------|
G|--9~------------------------------------------|
D|--7~------------------------------------------|
A|--0~------------------------------------------|
E|----------------------------------------------|

e|----------------------------------------------|
B|-----10--------10--------10-------------------|
G|-----x---------x---------x--------------------|
D|-77--7--77777--7--77777--7--------------------|
A|-00-----00000-----00000-----------------------|
E|----------------------------------------------|

e|----------------------------------------------|
B|--------10--------10--------10--------5-------|
G|--------x---------x---------x---------x-------|
D|-77777--7--77777--7--77777--7--77777--2-------|
A|-00000-----00000-----00000-----00000----------|
E|----------------------------------------------|

Outro
e|----------------------------------------------|
B|-----10---------------------------------------|
G|-2~---9--2~-----------------------------------|
D|-2~---7--2~-----------------------------------|
A|-0~---0--0~-----------------------------------|
E|----------------------------------------------|

Order:
Intro x2
Verse x1
Chorus 1 x1
Chorus 1 ending x1
Intro x1
Verse x1
Chorus 1 x1
Interlude x1
Chorus 1 x1
Outro x1

Any questions just e-mail me...
==========================================================================


Текст, аккорды и табулатура для песни "Dont Leave Me", исполняет "Blink 182".
Используемые в песне аккорды можно найти в разделе Как брать аккорды. Аккорды для шестиструнной гитары. Другие песни можно найти на нашем сайте, воспользовавшись алфавитным указателем вверху страницы.


 
Ошибка в тексте? Выделите ошибку и нажмите Ctrl+Enter