Author/Artist: Blink-182 
Title: Anthem part 2 
Album: Take Off Your Pants And Jacket 
Transcribed by: Pat 
Email: pat_waty 

Blink 182 tabs are just too easy to transcribe. 

-|-3---3---1---1---0---0---3---3---------------------------------------------- 
-|---1---1---1---1---1---1---1---1-------------------------------------------- 
-|---------------------------------------------------------------------------- 
-|---------------------------------------------------------------------------- 
-|---------------------------------------------------------------------------- 
-|---------------------------------------------------------------------------- 
 intro                                                                         

-|------------------|--------------------------------------------------------- 
-|------------------|--------------------------------------------------------- 
-|------------------|--------------------------------------------------------- 
-|---2-3--2--2-3--2-|----2-3-2------------------------------------------------ 
-|------------------|----------5--3------------------------------------------- 
-|------------------|--------------------------------------------------------- 
 intro 2                                                                       

-|---------------------------------------------------------------------------- 
-|---------------------------------------------------------------------------- 
-|------------------9-9-9-------------------10-xxx---------------------------- 
-|------------------9-9-9--10-xxx---7-xxx---10-xxx---------------------------- 
-|------------------7-7-7--10-xxx---7-xxx----8-xxx---------------------------- 
-|--------------------------8-xxx---5-xxx------------------------------------- 
       verse 1 and 2                                                           

-|---------------------------------------------------------------------------- 
-|---------------------------------------------------------------------------- 
-|---------------------------------------------------------------------------- 
-|---------------------------------------------------------------------------- 
-|-----7---5---1-------------------------------------------------------------- 
-|---5---3---3---------------------------------------------------------------- 
     right before the chorus                                                   

-|---------------------------------------------------------------------------- 
-|---------------------------------------------------------------------------- 
-|---------------------5-5-5-5------------------------------------------------ 
-|---7-7-7-7--3-3-3-3--5-5-5-5--5-5-5-5--------------------------------------- 
-|---7-7-7-7--3-3-3-3--3-3-3-3--5-5-5-5--------------------------------------- 
-|---5-5-5-5--1-1-1-1-----------3-3-3-3--------------------------------------- 
     chorus                                                                    




Текст, аккорды и табулатура для песни "Anthem Part Two (ver 11)", исполняет "Blink 182".
Используемые в песне аккорды можно найти в разделе Как брать аккорды. Аккорды для шестиструнной гитары. Другие песни можно найти на нашем сайте, воспользовавшись алфавитным указателем вверху страницы.


 
Ошибка в тексте? Выделите ошибку и нажмите Ctrl+Enter