Alrighty, didnt see a tab for this song either so i tabbed it.
This whole song is played on an acoustic, and its in standard tuning.


Intro:

e]------------------------------------------------------------------------]
b]------------------------------------------------------------------------]
g]------------------------------------------------------------------------]
d]--4--6--7--9--7--7--9--11--11--12--9------------------------------------]
a]--X--X--X--X--X--X--X--X---X---X---X------------------------------------]
e]--2--4--5--7--5--5--7--9---9---10--7------------------------------------]
(Every other time u play this stop the third time u play A, let it ring a while.)

Verse:

e]------------------------------------------------------------------------]
b[------------------------------------------------------------------------]
g]--6-6-6-6-6-6-6-6-4-4-4-4-6-6-------------------------------------------]
d]--X-X-X-X-X-X-X-X-X-X-X-X-X-X--2----------------------------------------]
a]--4-4-4-4-4-4-4-4-2-2-2-2-4-4--0----------------------------------------]
E]------------------------------------------------------------------------]


Chorus: I am not sure about this part, but this is what i could come up with.

e]------------------------------------------------------------------------]
b]------------------------------------------------------------------------]
g]------------------------------------------------------------------------]
d]--4-4-4-4-4-4-4-4-4-6-7-7-7-7-7-7-7-7-----------------------------------]
a]--X-X-X-X-X-X-X-X-X-X-X-X-X-X-X-X-X-X-----------------------------------]
E]--2-2-2-2-2-2-2-2-2-4-5-5-5-5-5-5-5-5-----------------------------------]


Interlude:

e]------------------------------------------------------------------------]
b]------------------------------------------------------------------------]
g]--2---2---2---1-1-------------------------------------------------------]
d]------------------2-----------------------------------------------------]
a]------------------------------------------------------------------------]
E]------------------------------------------------------------------------]


I think that this is it, but if u find that i have miss tabbed a part or if
i missed a part figure it out urself and post a new tab for this song.


Текст, аккорды и табулатура для песни "All Of This", исполняет "Blink 182".
Используемые в песне аккорды можно найти в разделе Как брать аккорды. Аккорды для шестиструнной гитары. Другие песни можно найти на нашем сайте, воспользовавшись алфавитным указателем вверху страницы.


Слушать онлайн All Of This


Blink-182All Of This на Яндекс.Музыке


 
Ошибка в тексте? Выделите ошибку и нажмите Ctrl+Enter