Band: Blink 182
Tabbed by: EL CUCCI


CHORD CHART:
    B   F#   G#   E    C#    D#  Eii
e|--------------------------------------
b|--------------------------------------
g|--4-------------------6----8----9-----
d|--4----4----6----2----6----8----9-----
a|--2----4----6----2----4----6----7-----
e|-------2----4----0--------------------

Intro

-----------------------------------------------------
-----------------------------------------------------
--4-4-4-4-4-4-4-4-4-4-6-6-6-6-6-8-8-8--4--
--4-4-4-4-4-4-4-4-4-4-6-6-6-6-6-8-8-8--4--
--2-2-2-2-2-2-2-2-2-2-4-4-4-4-4-6-6-6--2--
------------------------------------------------------

B
hey mom there's something in the backroom

i hope it's not the creatures from above

you used to read me stories

as if my dreams were boring

we all know conspiracies are dumb

    B, E, G#, E

VERSE:
B               F#                  G#      E
what if people knew that these were real
B                    F#              G#     E
i'd leave my closet door open all night
B             F#    
i know the c.i.a would say
G#                     E
what you hear is all hearsay
B                     F#               G#    E
i wish someone would tell me what was right

CHORUS:
B             F#
up all night long
                     B                         F#
and there's something very wrong

        and i know it must be late
        been gone since yesterday
                e---------------------------
        b---------------------------
        g---------------------------
        d-1-1---1-1---2-2---2-2-----
        a-----2-----2-----2-----2---
        e---------------------------

F#       E             B
i'm not like you guys
F#       E 
i'm not like you

     B, E, G#, E

B                F#             G#         E
i am still the skeptic yes you know me
B                      F#             G#   E
been best friends and will be till we die
B          F#
i got an injection
G#                 E
of fear from the abduction
B                      F#               G#   E
my best friend think's im just telling lies

alright

CHORUS:
B             F#
up all night long
                      B                       F#
and there's something very wrong

        and i know it must be late
        been gone since yesterday
                e---------------------------
        b---------------------------
        g---------------------------
        d-1-1---1-1---2-2---2-2-----
        a-----2-----2-----2-----2---
        e---------------------------

F#       E        B
i'm not like you guys
F#       E 
i'm not like you

  B, D#, C#, Eii, D#

G#                     F#          E
dark and scary, ordinary, explanation
B      C#     G#                                 F#
information, nice to know ya, paranoia
E                                 B    C#      
where's my mother, biofather


CHORUS:
B             F#
up all night long
                     B                       F#
and there's something very wrong

        and i know it must be late
        been gone since yesterday
                e---------------------------
        b---------------------------
        g---------------------------
        d-1-1---1-1---2-2---2-2-----
        a-----2-----2-----2-----2---
        e---------------------------

F#       E             B
i'm not like you guys
F#       E             B
Twelve majestic lies

EL FINAL 
:: Ultimate Guitar Archive :: 
http://www.ultimate-guitar.com 



Текст, аккорды и табулатура для песни "Aliens Exist (ver 11)", исполняет "Blink 182".
Используемые в песне аккорды можно найти в разделе Как брать аккорды. Аккорды для шестиструнной гитары. Другие песни можно найти на нашем сайте, воспользовавшись алфавитным указателем вверху страницы.


 
Ошибка в тексте? Выделите ошибку и нажмите Ctrl+Enter