Tab by Pat

Intro x1
G/-----------------------------------------------------------------|
D/-----------------------------------------------------------------|
A/-2-2-2-2-2-2-2-2-2-2-2-2-2-4-4-4-4-6-6-6-6-----------------------|
E/-----------------------------------------------------------------|

Verse x1
G/-----------------------------------------------------------------|
D/-----------------------------------------------------------------|
A/-2-2-2-2-2-2-2-2-------------------------------------------------|
E/-----------------2-2-2-2-2-2-2-2-4-4-4-4-4-4-4-4-0-0-0-0-0-0-0-0-| x2

G/-----------------------------------------------------------------|
D/-----------------------------------------------------------------|
A/-2-2-2-2-2-2-2-2-4-4-4-4-4-4-4-4---------------------------------|
E/---------------------------------4-4-4-4-4-4-4-4-0-0-0-0-0-0-0-0-| x1

G/-----------------------------------------------------------------|
D/-----------------------------------------------------------------|
A/-2-2-2-2-2-2-2-2-------------------------------------------------|
E/-----------------2-2-2-2-2-2-2-2-4-4-4-4-4-4-4-4-----------------| x1

Interlude x2
G/-----------------------------------------------------------------|
D/-----------------------------------------------------------------|
A/-2--2-2-2--2--2--------------------------------------------------|
E/----------------0-0--0-0--0-4-4-4-4--44--4-0-0--0--0-0-----------|

Verse x1
G/-----------------------------------------------------------------|
D/-----------------------------------------------------------------|
A/-2-2-2-2-2-2-2-2-------------------------------------------------|
E/-----------------2-2-2-2-2-2-2-2-4-4-4-4-4-4-4-4-0-0-0-0-0-0-0-0-| x2

G/-----------------------------------------------------------------|
D/-----------------------------------------------------------------|
A/-2-2-2-2-2-2-2-2-4-4-4-4-4-4-4-4---------------------------------|
E/---------------------------------4-4-4-4-4-4-4-4-0-0-0-0-0-0-0-0-| x1

G/-----------------------------------------------------------------|
D/-----------------------------------------------------------------|
A/-2-2-2-2-2-2-2-2-------------------------------------------------|
E/-----------------2-2-2-2-2-2-2-2-4-4-4-4-4-4-4-4-----------------| x1

Chorus x1
G/-----------------------------------------------------------------|
D/-----------------------------------------------------------------|
A/-----------------------------------------------------------------|
E/-7--7-7-7-7-7-7--7--7-7-7-7-72--2-2-2-2-2-2--2--2-2-2-2-2/------| x2

G/-----------------------------------------------------------------|
D/-----------------------------------------------------------------|
A/-1-1-1-1-1-1-1-1-1-1-1-1-1-1-1-1-2-2-2-2-2-2-2-2-2-2-2-2-2-2-2-2-|
E/-----------------------------------------------------------------| x2

G/-------------------------------------------------------------------|
D/-------------------------------------------------------------------|
A/-----------------2-------------------------------------------------|
E/-2-------0---------------2-------0---------------------------------| x1

Interlude x2
G/-----------------------------------------------------------------|
D/-----------------------------------------------------------------|
A/-2--2-2-2--2--2--------------------------------------------------|
E/----------------0-0--0-0--0-4-4-4-4--44--4-0-0--0--0-0-----------|

Verse x1
G/-----------------------------------------------------------------|
D/-----------------------------------------------------------------|
A/-2-2-2-2-2-2-2-2-------------------------------------------------|
E/-----------------2-2-2-2-2-2-2-2-4-4-4-4-4-4-4-4-0-0-0-0-0-0-0-0-| x2

G/-----------------------------------------------------------------|
D/-----------------------------------------------------------------|
A/-2-2-2-2-2-2-2-2-4-4-4-4-4-4-4-4---------------------------------|
E/---------------------------------4-4-4-4-4-4-4-4-0-0-0-0-0-0-0-0-| x1

G/-----------------------------------------------------------------|
D/-----------------------------------------------------------------|
A/-2-2-2-2-2-2-2-2-------------------------------------------------|
E/-----------------2-2-2-2-2-2-2-2-4-4-4-4-4-4-4-4-----------------| x1

Chorus
G/-----------------------------------------------------------------|
D/-----------------------------------------------------------------|
A/-----------------------------------------------------------------|
E/-7--7-7-7-7-7-7--7--7-7-7-7-72--2-2-2-2-2-2--2--2-2-2-2-2/------| x2

G/-----------------------------------------------------------------|
D/-----------------------------------------------------------------|
A/-1-1-1-1-1-1-1-1-1-1-1-1-1-1-1-1-2-2-2-2-2-2-2-2-2-2-2-2-2-2-2-2-|
E/-----------------------------------------------------------------| x2

G/-------------------------------------------------------------------|
D/-------------------------------------------------------------------|
A/-----------------2-------------------------------------------------|
E/-2-------0---------------2-------0---------------------------------| x1

Interlude II x4
G/----------------------------------------------------------------------|
D/----------------------------------------------------------------------|
A/----------------------------------------------------22222222----------|
E/-4444444444444444-2222222222222222-0000000000000000----------22222222-|

Chorus x1
G/-----------------------------------------------------------------|
D/-----------------------------------------------------------------|
A/-----------------------------------------------------------------|
E/-7--7-7-7-7-7-7--7--7-7-7-7-72--2-2-2-2-2-2--2--2-2-2-2-2/------| x2

G/-----------------------------------------------------------------|
D/-----------------------------------------------------------------|
A/-1-1-1-1-1-1-1-1-1-1-1-1-1-1-1-1-2-2-2-2-2-2-2-2-2-2-2-2-2-2-2-2-|
E/-----------------------------------------------------------------| x2

Outro x2
G/-----------------------|
D/-----------------------|
A/---------7-------2-----|
E/-2---------------------|

-Order-
-Intro........... x1
-Verse........... x1
-Interlude....... x2
-Verse........... x1
-Chorus.......... x1
-Interlude....... x2
-Verse........... x1
-Chorus.......... x1
-Interlude II.... x4
-Chorus.......... x1
-Outro........... x2

                                   That's all


Текст, аккорды и табулатура для песни "Aliens Exist", исполняет "Blink 182".
Используемые в песне аккорды можно найти в разделе Как брать аккорды. Аккорды для шестиструнной гитары. Другие песни можно найти на нашем сайте, воспользовавшись алфавитным указателем вверху страницы.


Слушать онлайн Aliens Exist


Blink-182Aliens Exist на Яндекс.Музыке


 
Ошибка в тексте? Выделите ошибку и нажмите Ctrl+Enter