ADAM’S SONG (100% CORRECT)
ENAMA OF THE STATE 
TUNNING- DGCFAD

RIFF A
D----------------------------------------------------------------------
A----------------------------------------------------------------------
F----------------------------------------------------------------------
C--4-0---4-0---4-0--4-0---4-0--4-0---4-0---4-0-------------------------
G-2-----2-----0----0---------------------------------------------------
D------------------------3----3-----0-----3----------------------------

RIFF B 
-------------------P.M.----------------------------------|
D----------------------------------------------------------------------
A----------------------------------------------------------------------
F----------------------------------------------------------------------
C-4-4-4-4-4-4-4-4------------------------------------------------------
G-5-5-5-5-5-5-5-5--5-5-5-5-5-5-5-5--9-9-9-9-9-9-9-9--------------------
D------------------3-3-3-3-3-3-3-3--7-7-7-7-7-7-7-7--------------------

RIFF C 
D----------------------------------------------------------------------
A----------------------------------------------------------------------
G----------------------------------------------------------------------
C--7-0---7-0---9-0---9-0---4-0---4-0---4-0---4-0-----------------------
G-5-----5-----7-----7-----2-----2--------------------------------------
D-------------------------------------3-----3--------------------------

RIFF D 
D----------------------------------------------------------------------
A----------------------------------------------------------------------
G----------------------------------------------------------------------
C--7-0---7-0---9-0---9-0---4-0---4-0---2-0---2-0-----------------------
G-5-----5-----7-----7-----2-----2--------------------------------------
D-------------------------------------3-----3--------------------------

RIFF E 
D----------------------------------------------------------------------
A----------------------------------------------------------------------
G-7-7-7-7-7-7-7-7--9-9-9-9-9-9-9-9-4-4-4-4-4-4-4-4--------------------
C-X-X-X-X-X-X-X-X--X-X-X-X-X-X-X-X-X-X-X-X-X-X-X-X--5-5-5-5-5-5-5-5-0-
G-5-5-5-5-5-5-5-5--7-7-7-7-7-7-7-7-2-2-2-2-2-2-2-2--X-X-X-X-X-X-X-X-0-
D----------------------------------------------------3-3-3-3-3-3-3-3---


D----------------------------------------------------------------------
A----------------------------------------------------------------------
G-1111111111111111-1212121212121212--1111111111111111-1212121212121212-
C-X-X-X-X-X-X-X-X--X-X-X-X-X-X-X-X---X-X-X-X-X-X-X-X--X-X-X-X-X-X-X-X--
G-9-9-9-9-9-9-9-9--1010101010101010--9-9-9-9-9-9-9-9--1010101010101010-
D----------------------------------------------------------------------

RIFF F 
W/ DIST.
D----------------------------------------------------------------------
A----------------------------------------------------------------------
G-7-7-7-7-7-7-7-7--9-9-9-9-9-9-9-9-4-4-4-4-4-4-4-4--------------------
C-7-7-7-7-7-7-7-7--9-9-9-9-9-9-9-9-4-4-4-4-4-4-4-4--5-5-5-5-5-5-5-5---
G-5-5-5-5-5-5-5-5--7-7-7-7-7-7-7-7-2-2-2-2-2-2-2-2--5-5-5-5-5-5-5-5---
D-5-5-5-5-5-5-5-5--7-7-7-7-7-7-7-7-2-2-2-2-2-2-2-2--3-3-3-3-3-3-3-3---

RIFF G 
D-2--------------------------------------------------2-----------------
A------------------3-----------------------------3---------3-----------
G-----------------------------------2-------- (2)--------------2-------
C----------------------------------------------------------------------
G----------------------------------------------------------------------
D----------------------------------------------------------------------

RIFF H 
D----------------12-----------------------12-----15-15-15-14-----------
A----------15-----------15-------------15---15---------------15--15----
G------14----------------------14------------------------------14------
C-12-------------------------------------------------------------------
G----------------------------------------------------------------------
D----------------------------------------------------------------------

D----------------12--------------------------12--14------15--17--------
A-15------15------------15-----------------15------15------------------
G------14------------------12--12-12-12--14----14----14----------------
C----------------------------------------------------------------------
G----------------------------------------------------------------------
D----------------------------------------------------------------------

RIFF I 
D----------------------
A----------------------
G-----0------0---------
C---4------4------4----
G-5------5------5------
D----------------------


RIFF J 

D----------------------------------------------------------------------
A----------------------------------------------------------------------
G-----7----7----7-----7-----7-------7-----7-----7-----7-----7------
C---0----0----0-----0-----0---0---0-----0-----0-----0-----0---0--------
G-5----5----5-----5-----5-------5-----5-----5-----5-----5--------------
D----------------------------------------------------------------------

RIFF K

W/ DIST.

D-------------------------------------------------------------------17-
A-------------------------------------------------------------------x--
G-7-7-7-7-7-7-7-7--9-9-9-9-9-9-9-9-4-4-4-4-4-4-4-4-----------------147
C-7-7-7-7-7-7-7-7--9-9-9-9-9-9-9-9-4-4-4-4-4-4-4-4--5-5-5-5-5-5-5-5--7
G-5-5-5-5-5-5-5-5--7-7-7-7-7-7-7-7-2-2-2-2-2-2-2-2--5-5-5-5-5-5-5-5--5
D-5-5-5-5-5-5-5-5--7-7-7-7-7-7-7-7-2-2-2-2-2-2-2-2--3-3-3-3-3-3-3-3--5

RIFF A 2X RIFF F 2X RIFF D 2X RIFF G 2X RIFF I PLAYED THROUGH

RIFF B 4X RIFF A 2X RIFF E 1X RIFF H 1X G & H

RIFF C 2X RIFF B 4X RIFF F 2X RIFF J 2X

RIFF E 1X RIFF C 2X RIFF I 8X RIFF K 4X



Текст, аккорды и табулатура для песни "Adams", исполняет "Blink 182".
Используемые в песне аккорды можно найти в разделе Как брать аккорды. Аккорды для шестиструнной гитары. Другие песни можно найти на нашем сайте, воспользовавшись алфавитным указателем вверху страницы.


Слушать онлайн pop-splits - Blink 182 - Adams Song


Michael Panpop-splits - Blink 182 - Adams Song на Яндекс.Музыке


 
Ошибка в тексте? Выделите ошибку и нажмите Ctrl+Enter