Author/Band:Blindspott
Song:S.U.I.T (So Us Is This)
Album:Blindspott
Tabbed by:KoRotz
Tuning:BADGBE (low to high)
Contact: [email protected]

Key
 = harmonic
p  = pull of
h  = hammer on
*  = palm mute
x  = mute
/  = slide up
  = slide down
^  = bend

You guys are well aware that marcus uses a 7-string for all of is songs I tried
as hard as I could to make this song with a 6-string so here's the outcome!

enjoy

Intro w/clean effect
---------------------------555-7-77-8-88-7-|
----------------------------------|
-5h7-5h7-4--4------------------------------|
-------------------------------------------|
-------------------------------------------|
-------------------------------------------|

Fill
----------------------5-(5)--|
-----------------------|
-5h7-5h7-4--4----------------|
-----------------------------|
-----------------------------|
-----------------------------|

Main Riff   
-------------|
-------------|
-------------|
-------------|
--2--10-10---|
--0---8--8---|

Verse w/clean delay effect
----0------5----| 
----0------5----|      
----5------5----|     
-2--------------| 
----------------|  
----------------|

Main Riff   
-------------|
-------------|
-------------|
-------------|
--2--10-10---|
--0---8--8---|

Chorus w/distortion  
----------------------------------------|
----------------------------------------|
----------------------------------------|
-777777777-3333333333-0000-22222222-----|
-777777777-3333333333-0000-22222222-----|
----------------------------------------|
  
Verse w/clean effect
----0----5-5-5--| 
----0----5-5-5--|      
----5----5-5-5--|     
-2--------------| 
----------------|  
----------------|

Main Riff   
-------------|
-------------|
-------------|
-------------|
--2--10-10---|
--0---8--8---|

Chorus w/distortion  
----------------------------------------|
----------------------------------------|
----------------------------------------|
-777777777-3333333333-0000-22222222-----|
-777777777-3333333333-0000-22222222-----|
----------------------------------------|

Intro w/clean effect
---------------------------555-7-77-8-88-7-|
----------------------------------|
-5h7-5h7-4--4------------------------------|
-------------------------------------------|
-------------------------------------------|
-------------------------------------------|

Fill
----------------------5-(5)--|
-----------------------|
-5h7-5h7-4--4----------------|
-----------------------------|
-----------------------------|
-----------------------------|

Main Riff   
-------------|
-------------|
-------------|
-------------|
--2--10-10---|
--0---8--8---|

Fill
--------------|  
--------------|     
--------------| 
--------------|     
-2-2-2--2-10--|  
-0-0-0--0--8--|
 * * *  * 

Chorus w/distortion  
----------------------------------------|
----------------------------------------|
----------------------------------------|
-777777777-3333333333-0000-22222222-----|
-777777777-3333333333-0000-22222222-----|
----------------------------------------|

Main Riff   
-------------|
-------------|
-------------|
-------------|
--2--10-10---|
--0---8--8---|

End riff
Fill
--------------|  
--------------|     
--------------| 
--------------|     
-2-2-2--2-10--|  
-0-0-0--0--8--|
 * * *  * 

Lyrics

(try not to panic, try not to panic)

born and bred through collar borderline psychotics
spending most of your life with pushers and alcoholics
don't try and analyze why we act this way
if i could go back now, there's not a thing i would change
ihis is where its from and where its at
i know that you can't lie but when i raise like that
you deserve the right to keep it to yourself
and i would too if i respected my own ((*** you))

this is us and us is this
better swing and pray you don't miss ((*** you))
this is us and us is this
better swing and pray you don't miss

*** you and all your nega-tivity
it won't rub off on me
i've got my own as you can see
you're not alone in hating me

tactics with a scratcher match
ways to slash holes in your face, bass drone so low
shattered vertabrae, rocks inside of your backbone
what? you never thought i'd ***ing sink this low?
when hate, pride and jealousy's your energy
you are your own worst ((enemy))
but in jest you disrespect and effects you
quick test you revolve ((*** you)

this is us and us is this
better swing and pray you don't miss ((*** you))
this is us and us is this
better swing and pray you don't miss

*** you and all your nega-tivity
it won't rub off on me
i've got my own as you can see
you're not alone in hating me

so us is this, so us is this
((try not to panic, try not to panic))

*** you and all your nega-tivity
it won't rub off on me
i've got my own as you can see
you're not alone in hating me

*** you and all your nega-tivity
it won't rub off on me
i've got my own as you can see
you're not alone in hating me

shoutout to mcud and munky!


Текст, аккорды и табулатура для песни "Suit", исполняет "Blindspott".
Используемые в песне аккорды можно найти в разделе Как брать аккорды. Аккорды для шестиструнной гитары. Другие песни можно найти на нашем сайте, воспользовавшись алфавитным указателем вверху страницы.


 
Ошибка в тексте? Выделите ошибку и нажмите Ctrl+Enter