------------------------------------------------------|
Song Title: S.U.I.T. [(S)o (U)s (I)s (T)his]          |
Artist/Band: Blindspott                               |
Album: Blindspott                                     |
Guitarist: Marcus Powell                              |
Tabbed by: Jomigs, Mail me([email protected])  |
------------------------------------------------------|
Tuning: C, G, c, F, A, D (from low to high)           |
------------------------------------------------------|
p-pull off                                            |
h-hammer on					      |
*-hold/pause                                          |
+h-faster hammer on                                   |
^b-bend very slowly [upward]                          |
< >-let ring                                          |
( )-palm mute[strum the note, then quickly mute it]   |
X-muted note [strum the note, while the note is muted]| 
------------------------------------------------------|
NOTE: Listen very carefully to the CD, specially      |
on the verses, because i'ts very hard to figure out   |
the sound of the guitar. OK!                          |
------------------------------------------------------|


Intro[w/clean delay effect]
D--------------------6666--888--99p8----
A---------------------------------------
F---6+h8--6+h8--5-----------------------
c---------------------------------------
G---------------------------------------   
C---------------------------------------
        
                           
D--------------------6666--888--99p8----
A---------------------------------------
F---6+h8--6+h8--5-----------------------
c---------------------------------------
G---------------------------------------
C---------------------------------------


D--------------------6*---
A-------------------------
F---6+h8--6+h8--5---------
c-------------------------
G-------------------------
C-------------------------


Riff [w/distortion effect]
D------------
A------------ 
F------------                   
c------------                          
G---0--0h7---                   
C---0--0h7---
    |====|                             
     [x8]


Verse[1] (w/clean delay effect)
D--------------------
A----2h1-------------
F---------------4----                          
c---------------4----                                 
G---------------2----
C--------------------   
     |==========|
          [x4]         


[w/ distortion effect]
D---------------
A---------------
F---------------
c----------
G---------------
C---------------


Riff
D------------
A------------
F------------
c------------
G---0--0h7---
C---0--0h7---
    |====|
     [x8]


Chorus[part (1)]
D-------------------
A-------------------
F-------------------
c-------------------       
G---9---5---2---4---
C---9---5---2---4---
    |===========|
         [x4]


Verse[2] (w/clean delay effect)
D---------------------
A----2h1--------------
F----------------4----      
c----------------4----
G----------------2----
C---------------------        
     |===========|
          [x4]


[w/distortion effect]
D---------------
A---------------
F---------------
c----------
G---------------
C---------------


Riff
D------------
A------------
F------------
c------------
G---0--0h7---
C---0--0h7---
  


Chorus [part (2)]
D-------------------
A-------------------
F-------------------
c-------------------
G---9---5---2---4---
C---9---5---2---4---
    |===========|
         [x4]


[w/clean delay effect]
D------666--8-8-8-8p9p8-------------------------6*-----
A------------------------------------------------------
F--------------------------6+h8--6+h8--5---------------
c------------------------------------------------------
G------------------------------------------------------
C------------------------------------------------------ then, after that the scrath sample.
                                                        and then continue> 


[Break]
D-----------------------
A-----------------------
F-----------------------
c------------------
G--------------0--0h7---
C--------------0--0h7--- and then>>>
               |====|
                [x15]


D------------------
A------------------
F------------------
c------------------
G---0-x0-x0-x0-7---
C---0-x0-x0-x0-7---


Chorus/Ending
D-------------------------------------------------
A-------------------------------------------------
F-------------------------------------------------
c-------------------------------------------------
G-9---5---2---4-----9---5---2---4---x4---x4---x4--
C-9---5---2---4-----9---5---2---4---x4---x4---x4--and then repeat Chorus part 1[x4], then
  |===========|     |your not alone in hating..|
       [x3]


Riff[Ending]
D------------
A------------
F------------
c------------
G---0--0h7---
C---0--0h7---
    |====|
     [x7]


D---------------------
A---------------------
F---------------------
c---------------------
G----0-x0-x0-x0-7*----
C----0-x0-x0-x0-7*----


[Note:] Just E-mail me if you have any comments, suggestions and corrections.


Текст, аккорды и табулатура для песни "Suit", исполняет "Blindspott".
Используемые в песне аккорды можно найти в разделе Как брать аккорды. Аккорды для шестиструнной гитары. Другие песни можно найти на нашем сайте, воспользовавшись алфавитным указателем вверху страницы.


 
Ошибка в тексте? Выделите ошибку и нажмите Ctrl+Enter