Author/Band:Blindspott
Song:Plastic Shadow
Album:Blindspott
Tabbed by:KoRotz
Tuning:DADGBE (low to high)
Contact: [email protected]

Key
 = harmonic
p  = pull of
h  = hammer on
*  = palm mute
x  = mute
/  = slide up
  = slide down
^  = bend

This is rough and incomplete I just wanted to post it now
finish soon!

Intro w/delay
----------------------------|
------8---------6-----------|
----9---------7-------------|
--7---------7---------------|
----------------------------|
----------------------------|

Verse w/delay
----------------------------|
------8------8--------------|
----9------7---10-----------|
--7------7------------------|
----------------------------|
----------------------------|

Chorus
----------------------------|
------8--------6-5----------|
----9---9----7--------------|
--7--------7----------------|
----------------------------|
----------------------------|

------------------------------------|
------------------------6-8-6h8p6---|
----------------------7-----------9-|
----7-9-10-9h10p9-7-7---------------|
--7---------------------------------|
------------------------------------|

Verse w/delay
----------------------------|
------8------8--------------|
----9------7---10-----------|
--7------7------------------|
----------------------------|
----------------------------|

Fill w/distortion
---------|
---------|
---------|
--3-3-3--|
--3-3-3--|
--3-3-3--|

------------|
------8-----|
----7---10--|
--7---------|
------------|
------------|

Verse w/delay
----------------------------|
------8------8--------------|
----9------7---10-----------|
--7------7------------------|
----------------------------|
----------------------------|

Chorus
----------------------------|
------8--------6-5----------|
----9---9----7--------------|
--7--------7----------------|
----------------------------|
----------------------------|

------------------------------------|
------------------------6-8-6h8p6---|
----------------------7-----------9-|
----7-9-10-9h10p9-7-7---------------|
--7---------------------------------|
------------------------------------|

Bridge G1 clean
-----------------------------------------------|
-101010101010-13-13-131313--8-8-88-88-5-5-555--|
--x-x-x-x-x-x--x--x--x-x-x--x-x-xx-xx-x-x-xxx--|
--7-7-7-7-7-7-10-10-101010-5-5-55-55-2-2-222--|
-----------------------------------------------|
-----------------------------------------------|

-----------------------------------------------|
-101010101010-13-13-131313--151515151212121212-|
--x-x-x-x-x-x--x--x--x-x-x---x-x-x-x-x-x-x-x-x-|
--7-7-7-7-7-7-10-10-101010-12121212-9-9-9-9-9-|
-----------------------------------------------|
-----------------------------------------------|

-----------------------------------------------|
-101010101010-13-13-131313--8-8-88-88-5-5-555--|
--x-x-x-x-x-x--x--x--x-x-x--x-x-xx-xx-x-x-xxx--|
--7-7-7-7-7-7-10-10-101010-5-5-55-55-2-2-222--|
-----------------------------------------------|
-----------------------------------------------|

-----------------------------------------------|
-101010101010-13-13-131313--151515151212121212-|
--x-x-x-x-x-x--x--x--x-x-x---x-x-x-x-x-x-x-x-x-|
--7-7-7-7-7-7-10-10-101010-12121212-9-9-9-9-9-|
-----------------------------------------------|
-----------------------------------------------|

Bridge G2 w/distortion
-----------------------------------------------|
-----------------------------------------------|
--9-999-99-9999999-99999-99-9999999-99-99-9999-|
--x-xxx-xx-xxxxxxx-xxxxx-xx-xxxxxxx-xx-xx-xxxx-|
--7-777-77-7777777-77777-77-7777777-77-77-7777-|
-----------------------------------------------|


Verse w/delay
----------------------------|
------8------8--------------|
----9------7---10-----------|
--7------7------------------|
----------------------------|
----------------------------|

Chorus
----------------------------|
------8--------6-5----------|
----9---9----7--------------|
--7--------7----------------|
----------------------------|
----------------------------|

------------------------------------|
------------------------6-8-6h8p6---|
----------------------7-----------9-|
----7-9-10-9h10p9-7-7---------------|
--7---------------------------------|
------------------------------------|

Bridge 2 G1
----------------------------------------------|
--17-1717-17171717-19-19191919-15-1515151515--|
-----------x-x-x-x--x--x-x-x-x--x--x-x-x-x-x--|
----------14141414-16-16161616-12-1212121212--|
----------------------------------------------|
----------------------------------------------|

More Soon!


Текст, аккорды и табулатура для песни "Plastic Shadow", исполняет "Blindspott".
Используемые в песне аккорды можно найти в разделе Как брать аккорды. Аккорды для шестиструнной гитары. Другие песни можно найти на нашем сайте, воспользовавшись алфавитным указателем вверху страницы.


 
Ошибка в тексте? Выделите ошибку и нажмите Ctrl+Enter