Author/Band:Blindspott
Song:Interlude
Album:Blindspott
Tabbed by:KoRotz
Tuning:DADGBE (low to high)
Contact me:[email protected]

Key
 = harmonic
p  = pull of
h  = hammer on
*  = palm mute
x  = mute
/  = slide up
  = slide down
^  = bend

This song's only like a minute something so...
Marcus only plays this one little bit but hey it still counts as a song (lol)...right?
enjoy!

     Intro:w/delay (effect)
----------------------------0------|
--------------------8---------h8--|
----5-4-------7-------9------------|
----5-5-----5----/7-----10---------|
--3-3-2---7------------------------|
-----------------------------------|

     Intro 2:w/delay (effect)
--------------------------------0-------|
-----------------------------8----------h8-|
----5-4----------------7-------9------------|
----5-5--------------5----/7-----10---------|
--3-3-2------------7------------------------|
--------------------------------------------|

That's it!
Shout out to MuNkY & mcud!


Текст, аккорды и табулатура для песни "Interlude", исполняет "Blindspott".
Используемые в песне аккорды можно найти в разделе Как брать аккорды. Аккорды для шестиструнной гитары. Другие песни можно найти на нашем сайте, воспользовавшись алфавитным указателем вверху страницы.


 
Ошибка в тексте? Выделите ошибку и нажмите Ctrl+Enter