This is the intro and chorus. not too sure of the verses.... sorry

DROP D TUNING!

Intro
e|--------------------------------------------------|
b|--------------------------------------------------|
g|--------------------------------------------------|
d|111--666--44--999------111--666--444--333---|
a|111--666--44--999------111--666--444--333---|
d|111--666--44--999------111--666--444--333---|

Chorus
e|-------------|-------------------------------------|
b|-------------|-------------------------------------|
g|-------------|-------------------------------------|
d|--11-13-11-10|9999999999--11--7--9--10---REPEAT 2X-|
a|-------------|9999999999--9---5--7--8--------------|
d|-------------|9999999999--x---x--x--x--------------|


Текст, аккорды и табулатура для песни "Painting", исполняет "Blindside".
Используемые в песне аккорды можно найти в разделе Как брать аккорды. Аккорды для шестиструнной гитары. Другие песни можно найти на нашем сайте, воспользовавшись алфавитным указателем вверху страницы.


 
Ошибка в тексте? Выделите ошибку и нажмите Ctrl+Enter