C                          D
|--------------------------|-----------------10-----------|
|-------5-----------5------|-------7-------------7--------|
|----5-----5-----5-----5---|----7-----7-------------7-----|
|-------------5------------|-------------0----------------|
|-3------------------------|-5----------------------------|
|--------------------------|------------------------------|
        I`m lost    in the   black chamber     there`s no 
  C                          D                  Am
|--------------------------|------------------|----------------|
|-------5-----------5------|----------7-------|----------1-----|
|----5-----5-----5-----5---|-------7----------|----------2-----|
|-------------5------------|----7-------------|-------2-----2--|
|-3------------------------|-5----------------|----0-----------|
|--------------------------|------------------|----------------| 
  way   to    turn          back                It takes me
  F               E                        Am
|--------------|-------------0----------|------------------|
|--------1-----|-------0-----0-----0----|------------1-----|
|--------2-----|-------1-----------1----|------------2-----|
|-----3-----3--|----2-----2-----2-----2-|---------2-----2--|
|--------------|-2----------------------|------0-----------|
|--1-----------|------------------------|------------------|
   down     fo - rever more                and death would
  F              E         F
|--------------|-0------|-1-----------------1---------------|
|--------1-----|-0------|-1---1--------1--------1-------1---|
|--------2-----|-1------|-2-------2-----------------2-------|
|-----3-----3--|--------|-3---------------------------------|
|--------------|--------|-3---------------------------------|
|--1-----------|-0------|-1-----------------1---------------|
   be       so  sweet     I`m possessed by the old creature
  E
|-------------------1-----0--------------------|
|-0-----1-----3-----------------3-----1-----0--|
|----1-----1-----1-----1-----1-----1-----1--1--|
|----2-----2-----2-----2-----2-----2-----2--2--|
|----------------------------------------------|
|-0-----------------------------------------0--|
 who   have planned all   to    take  my   soul  
  Am                              Am              Em
|------------------------------|----------------|-----------------0-|
|---------------1--------------|---1------------|---------------0---|
|------------2---------2-----2-|---2---2--------|--0------0---0-----|
|---------2---------------2----|---2-------2----|--2--------2-------|
|------0-----------------------|---0------------|--2----------------|
|------------------------------|----------------|--0----------------|
 Too late for me                in my hands and   liest I thought
  Am                   Em
|--------------------|-----------|
|----1---1---1---1---|-----------|
|----2---2---2---2---|-0--0------|
|----2---2---2---2---|----2------|
|----0---------------|----2------|
|--------------------|----0------|
 But I failed now he`s in me

    A           F#            E 
My soul is lost in his black chamber
 H
I`m gone
 




Текст, аккорды и табулатура для песни "The Black Chamber", исполняет "Blind Guardian".
Используемые в песне аккорды можно найти в разделе Как брать аккорды. Аккорды для шестиструнной гитары. Другие песни можно найти на нашем сайте, воспользовавшись алфавитным указателем вверху страницы.


Слушать онлайн Black Chamber.


Blind GuardianBlack Chamber. на Яндекс.Музыке


 
Ошибка в тексте? Выделите ошибку и нажмите Ctrl+Enter