Title: Out on the water
Album:  Nightfall In Middle-Earth
Transcribed by Vitaliy Nikitin
-----------------------------------------------------------------------------

                            Out on the Water
                            by Blind Guardian


INTRO

gtr.1
     Am               Em              Am
E||-----0---------------0---------------0-----------0-----0------|
B||----1--1------------0--0------------1------1--3-----3---------|
G||---2-----2---------0-----0---------2-----2--------------------|
D||--2---------------2--------2------2---------------------------|
A||-0---------------2---------------0----------------------------|
E||----------------0---------------------------------------------|

gtr.2
E||-----------3-5---------------------------5-8-10--12-10-12-----|
B||------------------------------5p3---5-------------------------|
G||--------------------------------------------------------------|
D||--------------------------------------------------------------|
A||--------------------------------------------------------------|
E||--------------------------------------------------------------|

gtr.1
      Dm                     Am            Em       Am      
E||----1-----------------------0------------0-------------|
B||---3----0-1-3--1-0h1-0-----1----0-1-----0--1p0----1----|
G||--2---2-------------------2---2--------0---------2-----|
D||-0-----------------------2------------2---------2------|
A||------------------------0------------2---------0-------|
E||------------------------------------0------------------|

gtr.2
E||------5-7-8-10-8-7h8-7---12---5-7-8--10----8p7--5------|
B||-------------------------------------------------------|
G||-------------------------------------------------------|
D||-------------------------------------------------------|
A||-------------------------------------------------------|
E||-------------------------------------------------------|


Verse 1 (voice goes with the same riff as intro( when sing play intro)
or if you want: lead guitar repeat intro and rithm guitar play the 
folloing riff)

Riff 1


E||-0-------0-----------------------------|
B||---1---1---1---1-0-------0-------------|
G||-----2-------2-----0---0---0---0-------|
D||---------------------2-------2---------|
A||-0-------------------------------------|
E||-----------------0---------------------|
    Out   on    the     water 

E||-0-------0-----------------------------|
B||---1---1---1---1-0-------0-------------|
G||-----2-------2-----0---0---0---0-------|
D||---------------------2-------2---------|
A||-0-------------------------------------|
E||-----------------0---------------------|
 the island of the dead that live 

E||-1--------1-----------3-------3-------------|
B||----3---3----3---3------3---3----------3----|
G||------2--------2----------0-----------------|
D||-0------------------------------------------|
A||--------------------------------------------|
E||----------------------3---------------------|
 There they dwelt until they left the world and

E||-0------0------0---------------------------|
B||------1--------------1p0-------------------|
G||----2---------------------------2----------|
D||-------------------------------------------|
A||-0------------------------------0----------|
E||---------------0---------------------------|
  Still there deeds live forth in songs


comments and wishes send to: [email protected]


Текст, аккорды и табулатура для песни "Out On The Water", исполняет "Blind Guardian".
Используемые в песне аккорды можно найти в разделе Как брать аккорды. Аккорды для шестиструнной гитары. Другие песни можно найти на нашем сайте, воспользовавшись алфавитным указателем вверху страницы.


Слушать онлайн Out On The Water


Blind GuardianOut On The Water на Яндекс.Музыке


 
Ошибка в тексте? Выделите ошибку и нажмите Ctrl+Enter