b   =  Bend
bfr =  Bend full and release
x   =  Fret-hand muting
.   =  Pick-hand muting
h   =  Hammer-on
p   =  Pull-off
~   =  Vibrato
t   =  Tap-on
/   =  Slide up
   =  Slide down
A.H =  Artificial Harmonics
N.H =  Natural Harmonics
P.M =  Palm Muting
(9) =  Ghost note
"   =  Trem picking
****************************************
INTRO:
****************************************
|------------------------0------------------|
|-------------4------------0----------------|
|-----------------4-----------0---4---3h4p3-|
|---------6----------6----------------------|
|-------6-----------------------------------|
|4------------------------------------------|

|--------------------------------------------|
|------------4-------------------------------|
|----------------4-----6---3-----------------|
|--------6-----------6---------5-------------|
|------6-------------------------------------|
|4-------------------------------------------|

|--------------------------|-----------------|
|4/5---4-------------------|-7/9---7-5-5/7-4-|
|----------6-----4---6/8---|-----------------|
|--------------------------|-----------------|
|--------------------------|-----------------|
|--------------------------|-----------------|
****************************************                           
Verse 1: At 00:30 sec.
****************************************
|---------------------------------------------------------|
|---------------------------------------------------------|
|---8-8-8-6-8-9---8-9-8h9p8p6---8-------------------------|
|-6-------------------------------6-6-6-8-9-11-9h11p9-11--|
|---------------------------------------------------------|
|---------------------------------------------------------|

|-------------------------------------------------------------------|
|-------------------------------------------------------------------|
|----------8-8-8-6-8-9---8-9-8h9p8p6---8-------11-13-11-13-15-11-13-|
|-9-8----6-------------------------------6-6-6----------------------|
|-------------------------------------------------------------------|
|-------------------------------------------------------------------|
****************************************
Lead: At 00:45 sec.
****************************************
|---------------------------------------------------------|
|-19bfr-19-16br(17)---14-12-14-14bfr-12-14-12h14p12-------|
|---------------------------------------------------15-13-|
|---------------------------------------------------------|
|---------------------------------------------------------|
|---------------------------------------------------------|

|------------------------------------------------------|
|--------------------------------14-12h14p12-----------|
|-13~-16-15h16p15-13~---16-15-16-------------13--------|
|------------------------------------------------------|
|------------------------------------------------------|
|------------------------------------------------------|

|------------------------------------------------------|
|-------------14-12-----19-17-16h17p16-14-12-----------|
|-13-13-15-13-------15-----------------------15~-------|
|------------------------------------------------------|
|------------------------------------------------------|
|------------------------------------------------------|

						    alternate 1       alternate 2
|-----------------------------------9-8h9p8p6------|----------------|-------------------|
|------------------------------9bfr----------------|----------------|-------------------|
|---------8-10br(11)~-------10----------------8bfr-|-8-10-6-8-5-6---|-8-10----8---------|
|-8-11-12----------------12------------------------|--------------8-|------12---11-12-8-|
|--------------------------------------------------|----------------|-------------------|
|--------------------------------------------------|----------------|-------------------|

|-----------------------------------9-8h9p8p6----------|
|------------------------------9bfr--------------------|
|---------8-10br(11)~-------10----------------8-6-8-10-|
|-8-11-12----------------12----------------------------|
|------------------------------------------------------|
|------------------------------------------------------|
****************************************
Corus:
****************************************
|------------------------|
|------------------------|
|------------------------|
|-3-----------6----------|
|-1-----4-----4------2-3-|
|-------2------------0-1-|

****************************************
Solo 1: at 01:37 sec.
****************************************
|--------9-8---------|
|------9-----9-------|
|---10---------10~


Текст, аккорды и табулатура для песни "Nightfall", исполняет "Blind Guardian".
Используемые в песне аккорды можно найти в разделе Как брать аккорды. Аккорды для шестиструнной гитары. Другие песни можно найти на нашем сайте, воспользовавшись алфавитным указателем вверху страницы.


Слушать онлайн Nightfall


Blind GuardianNightfall на Яндекс.Музыке


 
Ошибка в тексте? Выделите ошибку и нажмите Ctrl+Enter