Все гитары надо настроить на полтона ниже.
Основная гитара:

D#|-0-------------------|-0---------------|
A#|---0------------0--|-------0-----|---0------------0|
F#|-----0--------0----|-----0-----3-|-----0--------0--|
C#|-------0----0------|---3---------|-------0----0----|
G#--------|-1-----------------|
D#|-0--------3----------|-0--------3------|
  
                                                                            
------|-0---------------------|
|-------0---------|---0------------0-|-------0--------|
|-----0---2---2h4-|-----0--------0---|-----0--------3-|
|---4-------4-----|-------0----0-----|---3------------|
|-2----------------------|-1--------------|
------|-0--------3------------|
  
                                                                       
|-------0---------|-------0---------------|
|---------3h1-0---|---------1-0-----------|
|-----0---------0-------------|
|---2-------------|---2-------------------|
|-3---------------|-0---------------3h2---|
------------------|

                                                                                
|---------0-------|-------3--------|-------0----------|
|-------1---1-----|----------3-----|---------3h1h-0---|
--2---|-----0------0---|-----0----------0-|
|---2-----------2-|---0----------0-|---2--------------|
|-0--------------------|-3----------------|
------|-3---------------------|

             There are signs....                                                                   
---------|---------0-------|-------0--------|
|-------0--1-0h1h0---|-------1---1-----|----------1-----|
-------0---2---|-----0------0---|
---------|---2-----------2-|---2----------2-|
|---2----------------|-0---------------|-3--------------|
|-0-----------------------------|

                                                                                   
|-------3-----------------|---------0-------|
|---------0-------|-------0--1-0h1h0--|-------1---1-----|
0-----------0---2---|
|-----0-------0-----------|---2-----------2-|
|---2-----------2-|---2---------------|-0---------------|
|-3---------------|-0-----------------------|


|-------0--------|-------3------------------|
|----------1-----|---------0-------|-------1--0---------|
|-----0------0---0------2h4h2h0-|
|---2----------2-|-----0-------0---|-----3--------------|
|-3--------------|---2-----------2-|---3----------------|
-----|-3---------------|-1------------------|

                                                                          
------|-0----------------3---|
|-------1-----1--------|-1-------1-----1-|
|-----2---2-----2------|---2-------2-----|
|---2-------2----------|-----2---2-------|
|-0--------------------|-0-----0---------|
-----------------|

                                                                                  
--------|-------3--------------|
|-0-----0--1-0h1h0--|---------3h0-----|-------4------4-|
|-----0-----------0-|-----0-------0---|-----4----4-----|
|---2---------------|---0-----------0-|---4--------4---|
--------------|-2--------------|
|-0-----------------|-3--------------------|


                                                                                   
|-------0------------------------|
|---------3h1h0---|-------1--0---------|-------1-----1---|
|-----0---------0--2h4h2h0-|-----2---2-----2-|
|---2-------------|-----3--------------|---2-------2-----|
|-3---------------|---3----------------|-0---------------|
------|-1------------------------|

                                                                     
|-0---------------|-0-------2-------|-2-------0-------|
------|---0-------3-----|---3-------1-----|
------|-----0-------2---|-----4-------0---|
------|-------2-0-----0-|-------4-------2-|
------------|-2-------3-------|
------|-0---------------------|
^здесь начинает играть вторая гитара, табы в самом низу

                                                                                 
|-0-------2-------|-2-------0-------|-0-------2-------|
|---0-------3-----|---3-------1-----|---0-------3-----|
|-----0-------2---|-----4-------0---|-----0-------2---|
|-------2-0-----0-|-------4-------2-|-------2-0-----0-|
------|-2-------3-------------|
|-0---------------------|-0---------------|

                                                                                 
|-2-------0-------|-0-------2-------|-2-------0-------|
|---3-------1-----|---0-------3-----|---3-------1-----|
|-----4-------0---|-----0-------2---|-----4-------0---|
|-------4-------2-|-------2-0-----0-|-------4-------2-|
|-2-------3-------------|-2-------3-------|
------|-0---------------------|

                      
|-0-------2-------|-2-------0-------|-0-------2-------|
|---0-------3-----|---3-------1-----|---0-------3-----|
|-----0-------2---|-----4-------0---|-----0-------2---|
|-------2-0-----0-|-------4-------2-|-------2-0-----0-|
------|-2-------3-------------|
|-0---------------------|-0---------------|

                     
|-2-------0-------|-0-------2-------|-2-------0-------|
|---3-------1-----|---0-------3-----|---3-------1-----|
|-----4-------0---|-----0-------2---|-----4-------0---|
|-------4-------2-|-------2-0-----0-|-------4-------2-|
|-2-------3-------------|-2-------3-------|
------|-0---------------------|

                     
|-0-------2-------|-2-------0-------|-2-----------5h3-|
|---0-------3-----|---3-------1-----|---3-------3-----|
|-----0-------2---|-----4-------0---|-----2---2-------|
|-------2-0-----0-|-------4-------2-|-0-----0---------|
------|-2-------3-------------|
|-0---------------------------|

           
--------5---------|
|---1-----1-------|-5-3h5h3-1-------------|
2-----4-----------|
|-------2-----2---------------|
|-0-------------0-------------|
------------------|
далее припев, а затем песня играется в основном оркестром



Вторая гитара (до этого места повторяется партия основной)
--0----------|--0----2-----|--2----0------|--0----2----|
-------------|--0----3-----|--3----1------|--0----3----|
-------------|--0----2-----|--4----0------|--0----2----|
-------------|--2----0-----|--4----2------|--2----0----|
-------------|--2----0-----|--2----3------|--2----0----|
-------------|--0----x-----|--x----0------|--0----x----|
                                                                                    
--2---0------|--0---2------|--2---0-------|--0---2-----|
--3---1------|--0---3------|--3---1-------|--0---3-----|
--4---0------|--0---2------|--4---0-------|--0---2-----|
--4---2------|--2---0------|--4---2-------|--2---0-----|
--2---3------|--2---0------|--2---3-------|--2---0-----|
--x---0------|--0---x------|--x---0-------|--0---x-----|


--2---0------|--0---2------|--2---0-------|--0---2-----|
--3---1------|--0---3------|--3---1-------|--0---3-----|
--4---0------|--0---2------|--4---0-------|--0---2-----|
--4---2------|--2---0------|--4---2-------|--2---0-----|
--2---3------|--2---0------|--2---3-------|--2---0-----|
--x---0------|--0---x------|--x---0-------|--0---x-----|
                                                                                    
--2---0------|--0---2------|--2---0-------|--0---2-----|
--3---1------|--0---3------|--3---1-------|--0---3-----|
--4---0------|--0---2------|--4---0-------|--0---2-----|
--4---2------|--2---0------|--4---2-------|--2---0-----|
--2---3------|--2---0------|--2---3-------|--2---0-----|
--x---0------|--0---x------|--x---0-------|--0---x-----|
                                                                           
--2---0-----|-2-----------5h3-------|
--3---1-----|---3-------3-----|---1-----1-------|
--4---0-----|-----2---2-------2-----|
--4---2-----|-0-----0---------|-------2-----2---|
--2---3-----------|-0-------------0-|
--x---0-----------------|
                                                                                    
--------------------------|
-----------------5--------|
--5--4h5h4-2--------------|
--------------5-----------|
--------------------------|
--------------------------|


Текст, аккорды и табулатура для песни "Lord Of The Rings (orchestral)", исполняет "Blind Guardian".
Используемые в песне аккорды можно найти в разделе Как брать аккорды. Аккорды для шестиструнной гитары. Другие песни можно найти на нашем сайте, воспользовавшись алфавитным указателем вверху страницы.


Слушать онлайн Lord Of The Rings.


Blind GuardianLord Of The Rings. на Яндекс.Музыке


 
Ошибка в тексте? Выделите ошибку и нажмите Ctrl+Enter