LORD OF THE RINGS
Blind Guardian
Transcribed by Greg Abbott
e-mail [email protected] if you have any comments
e|---0-----------------------|------------------|--0-------------------------
B|------0-----------------0--|-----------0------|-----0----------------------
G|---------0-----------0-----|--------0-------3-|--------0--------------0----
D|------------0-----0--------|-----3------------|-----------0--------0-------
A|---------------------------|--1---------------|-----------------0----------
E|-0-------------3-----------|------------------|--0-----------3-------------

e|-------------------------|--0-----------------------|----------------------
B|-------------------------|-----0-----------------0--|----------0-----------
G|----------0--------------|--------0-----------0-----|-------0-------3------
D|-------0-----2-----2h-4p-|-----------0-----0--------|----3-----------------
A|----4-----------4--------|--------------------------|-1--------------------
E|-2-----------------------|--0-----------3-----------|----------------------

e|----------0---__-___-----|------------0------------|-----------------------
B|-------------3—-1---0----|---------------1--0-_drag|__---------------------
G|-------0---------------0-|-------2-----------------|-----------------------
D|----2--------------------|----2--------------------|-----------------------
A|-3-----------------------|-0-----------------------|----------------3h—2p--
E|-------------------------|-------------------------|-----------------------

e|-------------0-----------|----------3------------|----------0---__-__------
B|----------1-----1--------|--------------3--------|-------------3--1--0-----
G|-------2-----------2-----|-------0---------0-----|-------0-----------------
D|----2-----------------2--|----0---------------0--|----2--------------------
A|-0-----------------------|-----------------------|-3-----------------------
E|-------------------------|-3---------------------|-------------------------

e|-----------------_-_-----|--------------0-----------|-----------0----------
B|----------0--1--0-1-0----|-----------1-----1--------|---------------1------
G|----------------------0--|--------2-----------2-----|--------0---------0---
D|-------2-----------------|-----2-----------------2--|-----2---------------2
A|----2--------------------|--0-----------------------|--3-------------------
E|-0-----------------------|--------------------------|----------------------

e|-----------3-------------|------------------_-_-----|--------------0----------
B|--------------0----------|-----------0--1--0-1-0----|-----------1-----1-------
G|-----------------0-------|-----------------------0--|--------2-----------2----
D|--------0-----------0----|--------2-----------------|-----2-----------------2-
A|-----2-----------------2-|-----2--------------------|--0----------------------
E|--3----------------------|--0-----------------------|-------------------------

e|-----------0----------|-----------3--------------|---------------------------
B|--------------1-------|--------------0-----------|-----------1----0---_-_-_--
G|--------0--------0----|-----------------0--------|-------------------2-4-2-0-
D|-----2--------------2-|--------0-----------0-----|--------3------------------
A|--3-------------------|-----2-----------------2--|-----3---------------------
E|----------------------|--3-----------------------|--1------------------------

e|-------------------------|--0----|--------------------3----|-----------------_-_----
B|-----------1--------1----|-------|--1-----------1--------1-|-0--------0--1--0-1-0---
G|--------2-----2--------2-|-------|-----2-----------2-------|-------0--------------0-
D|-----2-----------2-------|-------|--------2-----2----------|----2-------------------
A|--0----------------------|-------|--0--------0-------------|------------------------
E|-------------------------|-------|-------------------------|-0----------------------

e|------------3---__--------|----------------------|----------0---__-__------
B|---------------3--0-------|----------4--------4--|-------------3--1--0-----
G|--------0------------0----|-------4-----4--------|-------0--------------0--
D|-----0------------------0-|----4-----------4-----|----2--------------------
A|--------------------------|-2--------------------|-3-----------------------
E|--3-----------------------|----------------------|-------------------------

e|-------------------------|-------------------------|-0---|-0-----------2-----------
B|----------1--0---_-_-_---|----------1--------1-----|-----|----0-----------3--------
G|----------------2-4-2-0--|-------2-----2--------2--|-----|-------0-----------2-----
D|-------3-----------------|----2-----------2--------|-----|----------2--0--------0--
A|----3--------------------|-0-----------------------|-----|-------------------------
E|-1-----------------------|-------------------------|-----|-0-----------------------

e|--2-----------0-----------|-0-----------2-----------|-2-----------0-----------
B|-----3-----------1--------|----0-----------3--------|----3-----------1--------
G|--------4-----------0-----|-------0-----------2-----|-------4-----------0-----
D|-----------4-----------2--|----------2--0--------0--|----------4-----------2--
A|--2-----------3-----------|-------------------------|-2-----------3-----------
E|--------------------------|-0-----------------------|-------------------------

e|-0-----------2----------|-2-----------0----------|-0-----------2-----------
B|----0-----------3-------|----3-----------1-------|----0-----------3--------
G|-------0-----------2----|-------4-----------0----|-------0-----------2-----
D|----------2--0--------0-|----------4-----------2-|----------2--0--------0--
A|------------------------|-2-----------3----------|-------------------------
E|-0----------------------|------------------------|-0-----------------------

e|-2-----------0----------|-0-----------2----------|-2-----------0-----------
B|----3-----------1-------|----0-----------3-------|----3-----------1--------
G|-------4-----------0----|-------0-----------2----|-------4-----------0-----
D|----------4-----------2-|----------2--0--------0-|----------4-----------2--
A|-2-----------3----------|------------------------|-2-----------3-----------
E|------------------------|-0----------------------|-------------------------

e|-0-----------2----------|--2-----------0----------|-0-----------2----------
B|----0-----------3-------|-----3-----------1-------|----0-----------3-------
G|-------0-----------2----|--------4-----------0----|-------0-----------2----
D|----------2--0--------0-|-----------4-----------2-|----------2--0--------0-
A|------------------------|--2-----------3----------|------------------------
E|-0----------------------|-------------------------|-0----------------------

e|-2-----------0----------|--0-----------2-----------|--2-------------0----------
B|----3-----------1-------|-----0-----------3--------|-----3-------------1-------
G|-------4-----------0----|--------0-----------2-----|--------4-------------0----
D|----------4-----------2-|-----------2--0--------0--|-----------4-------------2-
A|-2-----------3----------|--------------------------|--2-----------3------------
E|------------------------|--0-----------------------|---------------------------

e|--2-----------------5__3-|------------------------|--5-—3_5_3_1------5______
B|-----3-----------3-------|----1-------1-----------|---------------4---------
G|--0-----2-----2----------|-------2-------2--------|-------------------------
D|-----------0-------------|----------2-------2-----|-------------------------
A|-------------------------|-0-------------------0--|-------------------------
E|-------------------------|------------------------|-------------------------

There is a rest for 27 bars then: -

e|-------------------------|
B|-0-----------0-----------|
G|----------0-----0--------|
D|-------2-----------2-----|
A|----2-----------------2--|
E|-0-----------------------|

e|----------------3-------|-------2__3--2_3_2-------|-------------------------
B|-3-----------3-----3----|--------------------3----|-0-----------0-----------
G|----------0-----------0-|----2------------------2-|----------0-----0--------
D|-------0----------------|-0-----------------------|-------2-----------2-----
A|----2-------------------|-------------------------|----2-----------------2--
E|-3----------------------|-------------------------|-0-----------------------

e|------------------------|---------2—3__2-------|-------------2-------------
B|----------1-------------|------3----------3----|----------3-----3----------
G|-------0-----0----------|---2----------------2-|-------4-----------4-------
D|----2-----------2-----2-|-0--------------------|----4-----------------4----
A|-3-----------------3----|----------------------|-2-------------------------
E|------------------------|----------------------|---------------------------

e|----------3-----2__0__2--|-0-----------2-----------|--2-----------0----------
B|-------------------------|----0-----------3--------|-----3-----------1-------
G|-------0-----0-----------|-------0-----------2-----|--------4-----------0----
D|----2--------------------|----------2--0--------0--|-----------4-----------2-
A|-3-----------------------|-------------------------|--2-----------3----------
E|-------------------------|-0-----------------------|-------------------------

e|-0-----------2-----------|--2-----------0------------|-0-----------2---------
B|----0-----------3--------|-----3-----------1---------|----0-----------3------
G|-------0-----------2-----|--------4------------0-----|-------0-----------2---
D|----------2--0--------0--|-----------4------------2--|----------2--0--------0
A|-------------------------|--2-----------3------------|-----------------------
E|-0-----------------------|---------------------------|-0---------------------

e|-2-----------0----------|-0-----------2----------|--2-----------0----------
B|----3-----------1-------|----0-----------3-------|-----3-----------1-------
G|-------4-----------0----|-------0-----------2----|--------4-----------0----
D|----------4-----------2-|----------2--0--------0-|-----------4-----------2-
A|-2-----------3----------|------------------------|--2-----------3----------
E|------------------------|-0----------------------|-------------------------

Chords: -

e|--0----0--0--0--0--2---2--2-—2--2--2----2--2--2--2--0----0--0--0--0---------
B|--0----0--0--0--0--3---3--3--3--3--3----3--3--3--3--1----1--1--1--1---------
G|--0----0--0--0--0--2---2--2--2--2--4----4--4--4--4--0----0--0--0--0---------
D|--2----2--2--2--2------------------4----4--4--4--4--2----2--2--2--2--------- x8
A|--2----2--2--2--2------------------2----2--2--2--2--3----3--3--3--3---------
E|--0----0--0--0--0-----------------------------------------------------------

e|----2--------2__3—5__3--|-----0--------0--------------|--0----------------
B|-------3----------------|--------1--------3_5_3-1---0-|--1-----------------
G|----------2-------------|-----------2-----------------|--2—bend upwards---
D|-0----------------------|-----------------------------|--2-----------------
A|------------------------|--0--------------------------|--0-----------------
E|------------------------|-----------------------------|--------------------


Текст, аккорды и табулатура для песни "Lord Of The Rings", исполняет "Blind Guardian".
Используемые в песне аккорды можно найти в разделе Как брать аккорды. Аккорды для шестиструнной гитары. Другие песни можно найти на нашем сайте, воспользовавшись алфавитным указателем вверху страницы.


Слушать онлайн Lord Of The Rings.


Blind GuardianLord Of The Rings. на Яндекс.Музыке


 
Ошибка в тексте? Выделите ошибку и нажмите Ctrl+Enter