проект солиста группы Blind Guardian
{Настройка на полтона ниже стандартной.}

Riff 1:
   Am                        Am
e|-------------------------|-------------------------|
B|-------1-----0-----0-----|-------1-----3-----0-----|
G|-----2---2-----2-----2---|-----2---2-----2-----2---|
D|---2-------2-----2-----2-|---2-------2-----2-----2-|
A|-0-----------------------|-0-----------------------|
E|-------------------------|-------------------------|

   Am                        C
e|-------------------------|-------------------------|
B|-------1-----0-----0-----|-------1-----3-----1-----|
G|-----2---2-----2-----2---|-----0---0-----0-----0---|
D|---2-------2-----2-----2-|---2-------2-----2-----2-|
A|-0-----------------------|-3-----------------------|
E|-------------------------|-------------------------|

End of Riff 1.

{Intro состоит из двух Riff 1.}

{Продолжаем играть Riff 1, звучит только одна гитара...}

    Am              
        Sad voices,    
    Am
        They´re calling
    Am               C                   Am
        Our precious girl, she can´t be gone. 

        How bitter this morning,   
    Am
        When daddy´s darling
    Am                  C           Am (боем)
        Whent out and started her day.

{Дальше первая гитара играет боем и вступает вторая гитара -
те же аккорды, только немного по-другому: удар, приглушили,
удар, приглушили... Можно на барре...}

    Am                   С         G
        Wasn´t there a dream last night
                            Am                 
        Like a spring never ending, 
                                               C
        Still the water runs clear through my mind,
                G                 Am
        On the field I can see a fiddler,
                             C
        The fiddler on the green,
                 G   Am
        And the sad boy.
                         C
        I took him to early
                   G
        Would you mind,
                   F
        Would you mind,
                   G   {Тс-с-с-с, заглушили!}
        Would you mind,
                   Am (Riff 1)
        If I take you?

{Вторая гитара умолкает, первая играет Riff 1, на заднем
фоне звучит электрогитара (сорри, я на электрике не умею...).
Потом две гитары играют целиком и точно так же куплет, а на
их фоне уже третья гитара играет вот это: }

Solo:
   Am                   C                G
e|--------------------|----------------|----------------|
B|--------------------|----------------|----------------|
G|-2----------2-4-45-|-0--------------|-5----4---4-5-4-|
D|--------------------|----------------|----------------|
A|--------------------|----------------|----------------|
E|--------------------|----------------|----------------|

   Am                   C                G
e|--------------------|----------------|----------------|
B|--------------------|----------------|----------------|
G|-2----------2-4-45-|-0--------------|-5----4---------|
D|--------------------|----------------|----------------|
A|--------------------|----------------|----------------|
E|--------------------|----------------|----------------|

   Am                   C                G
e|--------------------|----------------|----------------|
B|------------8--8--8-|-8!-------------|--8---6---6-8-6-|
G|-5------------------|---5------------|----------------|
D|--------------------|----------------|----------------|
A|--------------------|----------------|----------------|
E|--------------------|----------------|----------------|

   Am                   C                G
e|--------------------|----------------|----------------|
B|-5----------8--8--8-|-8!-------------|--8---6---------|
G|--------------------|---5------------|----------------|
D|--------------------|----------------|----------------|
A|--------------------|----------------|----------------|
E|--------------------|----------------|----------------|

   F                    G                               Am (Riff 1)
e|-5----------5-7-78-|-7---------------------------------|
B|--------------------|---------8-6-5-6-5---5-------------|
G|--------------------|-------------------7---7-5-7-5---5-|
D|--------------------|-------------------------------9---|
A|--------------------|-----------------------------------|
E|--------------------|-----------------------------------|

End of Solo.

{ Примечание:
    - "слайд"
  8! - здесь нужно эту ноту взять трижды, но очень быстро}

{Играем Riff 1, вторая гитара молчит...}

   (To be with you) 4 раза

   The sun seemed bright,
   The air was clear,
   The air was clear.
   A trick of light
   Turned red into green,
   She saw the light.

   Her face was pale,
   Her body smashed,
   Her beauty´s gone.

{Снова две гитары боем...}

  "Isn´t it a shame,"
   The reaper said.
   He is quite alone here
   And still waiting for you.
  "Oh I realy did fail for the first time,"
   Spoke the fiddler,
   Poor old fiddler,
   The fiddler on the green,
   The fiddler on the green.
  "It would be nice,
  "Take my hand!"

{Пошел овердрайв... Или дисторшн? Это, повторюсь, не по
моей части. Аккорды те же, звучит то же самое Solo, только
с овердрайвом... }

  "Just hold my hand, 
  "I´ll take you there.
  "Your pain will go 
  "Away!"




{Слова взяты отсюда: 
http://www.demons-wizards.com/lyrics.html 
Только я добавил немного пунктуации по своему, чисто
субъективному, усмотрению.
Удачи! Comments, как говорится, are welcome! }


Текст, аккорды и табулатура для песни "Fiddler On The Green", исполняет "Blind Guardian".
Используемые в песне аккорды можно найти в разделе Как брать аккорды. Аккорды для шестиструнной гитары. Другие песни можно найти на нашем сайте, воспользовавшись алфавитным указателем вверху страницы.


 
Ошибка в тексте? Выделите ошибку и нажмите Ctrl+Enter