Band: Blackend
Song: Won't Hurt Me
Tuning: Drop D down a half step

Intro:
-------------------------------------------------------------------
-------------------------------------------------------------------
-----------10-10-10------------------------------------------------
--2--2------9--9--9--x4--------------------------------------------
--2--2------8--8--8------------------------------------------------
--2--2--------------------3p2-0-0--3p2-0-0--3p2p0-3p2-0-0--3p2-0-0-

verse: wah on second time through(gtr 1)
-------------------------------------------------------------------
-------------------------------------------------------------------
-------------------------------------------------------------------
---------------7----------------7-----9-----------7---6------------
------------8----8------------8---10------------8---7-----3p2-0-0--
-3p2p0----------------3p2p0--------------3p2p0------------3p2-0-0--

-------------------------------------------------------------------
-------------------------------------------------------------------
-------------------------------------------------------------------
-----------------------x2------------------------------------------
---3p2-0-0--3p2p0--------------------------------------------------
---3p2-0-0--3p2p0--------------------------------------------------

gtr(2)
-------------------------------------------------------------------
-------------------------------------------------------------------
-------------------------------------------------------------------
----------------------------------------------------------x2-------
----------------(15)---x3------------------------------------------
-3p2p0----(15)--------------3p2-0-0--3p2-0-0--3p2p0----------------

chorus:
-------------------------------------------------------------------
-------------------------------------------------------------------
-------10-10-10-10---------10-10--9-9---------10-10--12-12---------
--------9--9--9--9----------9--9---------------9--9----------------
-3p2p0--8--8--8--8---3p2p0--8--8--7-7---3p2p0--8--8--10-10---------
-3p2p0---------------3p2p0--------------3p2p0---------------3p2-0-0

--------------------------------------------------------------------
--------------------------------------------------------------------
--------------------------------------------------------------------
-------------------------------------------------x3-----------------
--------------------------------------------------------------------
----3p2-0-0--3p2p0-3p2-0-0--3p2-0-0---------------------------------

Bridge:
--------------------------------------------------------------------
--------------------------------------------------------------------
--------------------------------------------------------------------
--------------------------------------------------------------------
----------------------3---------------------------------------------
-3-2-2-2-3-2-2-2-3p2-----3-2-2-2-3-2-2-2-3p2--5---------------------

interlude:
--------------------------------------------------------------------
--------------------------------------------------------------------
--------------------------------------------------------------------
--------------------------------------------------------------------
------------------3-------------------------------------------------
-3p2-2---3p2-2----3-------------------------------------------------

after that play it a few times w/ power chords, go back into the 
chorus and then your done.


Текст, аккорды и табулатура для песни "Wont Hurt Me", исполняет "Blackend".
Используемые в песне аккорды можно найти в разделе Как брать аккорды. Аккорды для шестиструнной гитары. Другие песни можно найти на нашем сайте, воспользовавшись алфавитным указателем вверху страницы.


 
Ошибка в тексте? Выделите ошибку и нажмите Ctrl+Enter