Band: Blackend
Song: Out of My Life
Tuning: Drop D down a half step
Effects: Wah wah, whammy

Intro (guitar 1):
-------------------------------------------------------------------
-------------------------------------------------------------------
------------------------8------------------------------------------
---7-7-x-x--7-7--7--7---8------------------------------------------
---5-5-x-x--5-5--5--5---6------------------------------------------
-------------------------------------------------------------------

guitar 2 is just rubbing the palm of picking hand on string by the bridge 
while doing swoops with the wah wah

Main Riff:(g1)
-------------------------------------------------------------------
-------------------------------------------------------------------
-------------------------------------------------------------------
----------------------1------------------------1-------------------
-0-0-x-x--0-0--0--0---1---0-0-x-x--0-0--0--0---1---0-0-x-x--0--0---
-0-0-x-x--0-0--0--0---1---0-0-x-x--0-0--0--0---1---0-0-x-x--0--0---

-------------------------------------------------------------------
-------------------------------------------------------------------
-------------------------------------------------------------------
-1------------------------1----------------------------------------
-1---0-0-x-x--0-0--0--0---1----------------------------------------
-1---0-0-x-x--0-0--0--0---1----------------------------------------

g2:
-------------------------------------------------------------------
-------------------------------------------------------------------
----------------------3------------------------3-------------------
---------------0--0---1-----------------0--0---1------------0--0---
-0-0-x-x--0-0--0--0---1---0-0-x-x--0-0--0--0---1s3-0-0-x-x--0--0---
-0-0-x-x--0-0--0--0---1---0-0-x-x--0-0--0--0---1s3-0-0-x-x--0--0---

-------------------------------------------------------------------
-------------------------------------------------------------------
-3------------------------3----------------------------------------
-1-----------------0--0---1----------------------------------------
-1---0-0-x-x--0-0--0--0---1---3---6-5------------------------------
-1---0-0-x-x--0-0--0--0---1---3---6-5------------------------------

verse:
g1 is the same as the main riff except palm muted

g2:
-------------------------------------------------------------------
-------------------------------------------------------------------
-------------------------------------------------------------------
---------------------8---------------------------------------------
-0-0-x-x--0-0--------8---0-0-x-x--0--0--------10---13-12-----------
-0-0-x-x--0-0--0--0--8---0-0-x-x--0--0--0--0--10---13-12-----------


Chorus: just chords not strum pattern
-------------------------------------------------------------------
-------------------------------------------------------------------
--7-10----------------------3---7-10---5--5/-8---3--8--------------
--5--8----------------------1---5--8---3--x--6---1--x--------------
--5--8---0-0-x-x--0-0-------1---5--8---3--3/-6---1--6--------------
--5--8---0-0-x-x--0-0--0--0-1---5--8---3-----6---1-----------------

Bridge Part 1:G1
-------------------------------------------------------------------
-------------------------------------------------------------------
----------------------8----------------------10--------------------
----------------------x-----------------------x--------------------
-0-0-x-x--0-0---------6---0-0-x-x--0-0--------8--------------------
-0-0-x-x--0-0--0--0-------0-0-x-x--0-0--0--0-----------------------

G2:whammy, press on heal to simulate neck bend on high notes
----------------------1-----------------------0--------------------
----------------------------------------------5--------------------
-------------------------------------------------------------------
-------------------------------------------------------------------
-0-0-x-x--0-0------------0-0-x-x--0-0------------------------------
-0-0-x-x--0-0--0--0------0-0-x-x--0-0--0--0------------------------

Bridge part 2:Wah wah on guitar 2
-------------------------------------------------------------------
-------------------------------------------------------------------
-------------------------------------------------------------------
-------------------------------------------------------------------
----------5p3------5p3---------------------------------------------
-0--0--0-------0-0-------------------------------------------------


Текст, аккорды и табулатура для песни "Out Of My Life", исполняет "Blackend".
Используемые в песне аккорды можно найти в разделе Как брать аккорды. Аккорды для шестиструнной гитары. Другие песни можно найти на нашем сайте, воспользовавшись алфавитным указателем вверху страницы.


 
Ошибка в тексте? Выделите ошибку и нажмите Ctrl+Enter