Band: Blackend
Song: Headwound
Tuning: Drop D down a half step
Effects: Wah
s-slap (during hte verses slap on the 9th fret)
t-tap
p-pulloff
h-hammer

Intro/Outro: Distortion
--------0-----------0----------0-------------------------------
--------3-----------3----------3-------------------------------
--------2-----------2----------2-------------------------------
--------0-----------0----------0---------0-0-------------------
-0--1---0----0--1---0---0--1---0---0--1--0-0----------3--------
-0--1--------0--1-------0--1-------0--1--0-0---3--5------5-----

Verse: distortion (don't pick unless you're playing the chords)
---------------------------------------------------------------
---------------------------------------------------------------
----------------------------------7-7--------------------------
----------------------------------0-0--------------------------
------------------------0--X4-----5-5--------------------------
-s3p2p0--t5p3p2--s3p2p0-0---------0-0--------------------------

Chorus: Distortion
---------------------------------------------------------------
---------------------------------------------------------------
---7---7---7-7-7---------8---8-8-8---3-3-3-3---3-3---8-8--7----
---0---5---5-5-5---3-3---6---6-6-6---1-1-1-1---1-1-------------
-0-0---5---5-5-5---3-3---6---6-6-6---1-1-1-1---1-1---6-6--5----
-0-0---5---5-5-5---3-3---6---6-6-6---1-1-1-1---1-1-------------

Interlude:
---------------------------------------------------------------
---------------------------------------------------------------
-7-8-7--10---7-8-7---5-7-5---7-8-7--10---7-8-7-----------------
---------------------------------------------------------------
-5-6-5---8---5-6-5---3-5-3---5-6-5---8---5-6-5-----------------
---------------------------------------------------------------

Bridge:Wah
-----------------------------------|----------------------------
-----------------------------------|----------------------------
-----------------------------------|--------11p9-9--------------
-----------------------------------|10p9-9---------x2-10p9-12p9-
-------------------------------3p2-|----------------------------
-3p2--5p3p2--3p2--5p3p2---3p2------|----------------------------


Текст, аккорды и табулатура для песни "Headwound", исполняет "Blackend".
Используемые в песне аккорды можно найти в разделе Как брать аккорды. Аккорды для шестиструнной гитары. Другие песни можно найти на нашем сайте, воспользовавшись алфавитным указателем вверху страницы.


 
Ошибка в тексте? Выделите ошибку и нажмите Ctrl+Enter