US, hard rock band from Peoria, IL

Band: Blackend
Song: Blank Memory
Tuning: Drop D down a half step
Effects: Flanger (acoustic)

Verse: 
--------------------------------------------------------------
--------------------------------------------------------------
--------------11-111111-11---7--7-7-7--7--11-111111-11--------
-9--9-9-9--9---9--9-9-9--9---9--9-9-9--9---9--9-9-9--9--------
-7--7-7-7--7---7--7-7-7--7---7--7-7-7--7---7--7-7-7--7--------
--------------------------------------------------------------

--------------------------------------------------------------
--------------------------------------------------------------
---------------9--9-9-9--9-----------------9--9-9-9--9--------
-7--7-7-7--7---7--7-7-7--7---7--7-7-7--7---7--7-7-7--7--------
-5--5-5-5--5---5--5-5-5--5---5--5-5-5--5---5--5-5-5--5--------
-5--5-5-5--5---5--5-5-5--5---0--0-0-0--0---0--0-0-0--0--------

Interlude: 
--------------------------------------------------------------
--------------------------------------------------------------
--------------------------------------------------------------
-----------4--4-4-4--4-------------4--4-4-4--4----------------
-2---2-2---2--2-2-2--2---2---2-2---2--2-2-2--2---0--0-0-------
-2---2-2---2--2-2-2--2---2---2-2---2--2-2-2--2---0--0-0-------

--------------------------------------------------------------
--------------------------------------------------------------
--------------------------------------------------------------
14-141414-14------------14--14-14-14--14----------------------
12-121212-12---0--0-0---12--12-12-12--12----------------------
-0--0-0-0--0---0--0-0---12--12-12-12--12----------------------

Chorus: (flanger)
--------------------------------------------------------------
--------------------------------------------------------------
---------------------------------------------------------------
-2--2-2-2--2s5---0-0-4--4--4--12--12-12-12--12---9--9-9-9--9---
-2--2-2-2--2s5---0-0--0--0--0-10--10-10-10--10---7--7-7-7--7---
-2--2-2-2--2s5---0-0----------10--10-10-10--10---7--7-7-7--7---

Bridge: 
--------------------------------------------------------------
--------------------------------------------------------------
-------------------------------------------------------------2
-12--12-12-12--12---9--9-9-9--9---9--9-9-9--9---7--7-7-7--7--0
-10--10-10-10--10---7--7-7-7--7---9--9-9-9--9---5--5-5-5--5--0
-10--10-10-10--10---7--7-7-7--7---9--9-9-9--9---5--5-5-5--5--0


Текст, аккорды и табулатура для песни "Blank Memory", исполняет "Blackend".
Используемые в песне аккорды можно найти в разделе Как брать аккорды. Аккорды для шестиструнной гитары. Другие песни можно найти на нашем сайте, воспользовавшись алфавитным указателем вверху страницы.


 
Ошибка в тексте? Выделите ошибку и нажмите Ctrl+Enter