The Thrill Of It All
 Black Sabbath - Sabotage (1975)
 
 Tune down 1 1/2 steps (C#)
 
 -----------------------------------------------
 -----------------------------------------------
 ---5--5/7-------------------5----9-------5-----
 ---5--5/7-------------------5----9-------5-----
 |--0-5h7-0-------------------0-5h7-0-----------------------
 -----------------------------------------------
 
 
 w/ solo
 -----------------------------------------------
 -----------------------------------------------
 ------------7----------------------------------
 |--5--4--5--7--9---5h7--7----------------------------------
 |--3--2--3--5--7--------5----------------------------------
 -----------------------------------------------
 
 
 -----------------------------------------------
 -----------------------------------------------
 |----5-5-5-5-5----------------5-5-5-5-5-----------87--87-
 |--0h3-3-3-3-3---5---7------0h3-3-3-3-3---5---7---65--65-
 -----3---5--------------------3---5------------
 -----------------------------------------------
 
 
 -----------------------------------------------
 -----------------------------------------------
 -----------------------------------------------
 |---5------3-5-7--3------------5----3-5-7--3---------------
 ---------5-----3-5----------------5------------
 -----------------------------------------------
 
 -----------------------------------------------
 -----------------------------------------------
 -----------------------------------------------
 |-------3-------5--3---/7----5----3----2-------------------
 |-3--5-----------------------------------------------------
 -----------------------------------------------
 
 
 -----------------------------------------------
 -----------------10-10-10--8-------------------
 |---7-------5-------7--------10-10-10--9-------------------
 |---7-------5-------7--------10-10-10--9-------------------
 |---5-------3-------5--------------------------------------
 -----------------------------------------------
 
 
 ---------------------------------------------------------
 ---------------------------------------------------------
 ---------------------------------------------------------
 4-5----7/9-7--4---------------------4-5---7/9-7--4-------
 |---5-5-5-7------------------7--5-------5-5-5-7-----------------7--5-
 ---------------------------------------------------------
 
 
 -----------------------------------------------
 ----------8-10^-^10----------------------------
 |--7--------------5/7-----------7--------------------------
 |-------7-9-10-------------------------10p9p7--------------
 -----------------------------------------------
 -----------------------------------------------
 
 
 --------------10----------------------------------------------
 |13^^13-10--------------10--13p10-----------------------------------------
 |----------12^^12-10-12^---------12^^12p10-12p10--------------------10----
 ------------------------------------12-10-------------10--12--
 -----------------------------------------1210-8-10/12--------
 --------------------------------------------------------------
 
 
 |----18^-18^-18^-18^-^18p-----------------------------------------
 |-15--------------------^13p10------------------------------------
 -------------------^12p10----------10-12^^-10~~~------
 --------------------------12----12--------------------
 ------------------------------------------------------
 ------------------------------------------------------
 
 Solo:
 ----------------------------------------
 |-7-8-10---8-10-8p7-8p7-----|-7-8-10-10/12-----12-10-8-10-7h8---
 ------------7-------------------------7-
 ----------------------------------------
 ----------------------------------------
 ----------------------------------------
 
 
 -----------------------------------------------
 |-7h8-10-7h8-10-7h8-10-7h8-10-7-8-7h8p7--------------------
 ----------------------------9-7----------------
 -----------------------------------------------
 -----------------------------------------------
 -----------------------------------------------
 
 
 -----------------10^-10^-10^-10^-10^-10^-^10--8-h10---
 |-7h8-10-7h8-10-7h8-10-/12----------------------------------------
 ------------------------------------------------------
 ------------------------------------------------------
 ------------------------------------------------------
 ------------------------------------------------------
 



Текст, аккорды и табулатура для песни "The Thrill Of It All (tab)", исполняет "Black Sabbath".
Используемые в песне аккорды можно найти в разделе Как брать аккорды. Аккорды для шестиструнной гитары. Другие песни можно найти на нашем сайте, воспользовавшись алфавитным указателем вверху страницы.


 
Ошибка в тексте? Выделите ошибку и нажмите Ctrl+Enter