The Shining
 Black Sabbath - The Eternal Idol (1987)
 
 
 1--------------0-2-----------------1----------------0-------
 |---------1-------3------3-----3-------------1-------3--------0---0-----
 |-------2-------0------2---------2---------2-------0--------5-------5---
 |-0h2-3-------2-----0----------------0h2-3-------2--------7-----------7-
 -------------------------------------------0----------------
 ------------------------------------------------------------
 
 1st time:             2nd time:
 --------||-8-----7-----5---
 |-8-----7-----5-----|------
 |---5-----5-----5---||---5-----5-------
 |-----7-----7-------||-----7-----7-----
 --------|------
 --------|------
 
 
 |-------0-----0--------0-------0---------7-----7----/-9--9--9------
 |-----8---8-----8----7---7---7---7-----8---8-----8--/10-10-10------
 |---7-------7-----/8-------8---------7-------7------/-9--9--9------
 |-0--------------------------------0-------------------------------
 -------------------------------------------------------
 -------------------------------------------------------
 
 
 ------------------------------------------------------
 ------------------------------------------------------
 |--7---9--10--/9--7--5--7----5--5--7---9--10--/9--7--5--7--5--5---
 |--7---9--10--/7--5--3--5----5--5--7---9--10--/7--5--3--5--5--5---
 |--5---7--8------------------3--3--5---7--8----------------3--3---
 ------------------------------------------------------
 
 
 -----------------------------------------------
 -----------------------------------------------
 |--5--7--5h7p5-4-----------------2-p0----------------------
 -----5----0--2--3---------2--------------------
 -----------------------------3--2--------------
 -----------------------------------------------
 
 ___________________________________________________
 P.M.
 |---------0----------------0----------------0-----------------------
 |-------0---0-8----------3-----3----------1-----1-------------------
 |-----5---------5--4---4-----4---4--2---2---------2-----------------
 |---7----------------5----------------3-------3------2--------------
 |-0------------------------------------------------------3---2---0--
 --------------------------------------------------------
 
 
 -----------------------------------------------
 -----------------------------------------------
 ------------------------------------7--9------
 |----2--1~~-------5-4--5--4h5p4-------2--1~~----5--7------
 |-0-------------0---------------5--0-----------------------
 -----------------------------------------------
 
 
 
 
 



Текст, аккорды и табулатура для песни "The Shining (tab)", исполняет "Black Sabbath".
Используемые в песне аккорды можно найти в разделе Как брать аккорды. Аккорды для шестиструнной гитары. Другие песни можно найти на нашем сайте, воспользовавшись алфавитным указателем вверху страницы.


 
Ошибка в тексте? Выделите ошибку и нажмите Ctrl+Enter