The Law Maker
 Black Sabbath - TYR (1990)
 
 
 bend up and back down...
 |----------------------------------------12-------------------
 |-12-12-12-12--12-----12---12---12--15^----15-12--------------
 |-14^14^14-14^-14^----14^--14^--14^-------------14^^p12-14-12-
 |-------------------------------------------------------------
 |-------------------------------------------------------------
 |-------------------------------------------------------------
 
 |-------x-^15p14p12-14^-14^----------17^----1715----------
 |------x---------------------19^-19^-------------17-15^----
 |-----x----------------------------------------------------
 |-14-------------------------------------------------------
 |----------------------------------------------------------
 |----------------------------------------------------------
 
 |-12----------------------------------------------------------
 |----15-15p12-------------------------------------------------
 |-------------14^---14p12------12-----------------------------
 |-------------------------14------14-12h14--------------------
 |-------------------------------------------14p12---12--------
 |------------------------------------------------15-----15-14-
 w/ intro solo:
 |----------------------------------------------------------------------
 |----------------------------------------------------------------------
 |----------------------------------------------------------9--9-9-9----
 |----------5--4--------------5--4--------2--5--4-----------9--9-9-9----
 |----7--5--------5-----7--5--------5--3-----------5--------7--7-7-7----
 |-0-----------------0---------------------------------7--0-------------
 "The horizon breaks..."
 |--------------------------------------------------------------
 |-----------------------------------------------8-7------------
 |---9--9-9-9--9--9-9---9--9-9-9--9--9-9--5----7-7-7---9--9-9-9-
 |---9--9-9-9--9--9-9---9--9-9-9--9--9-9--5----7-------9--9-9-9-
 |---7--7-7-7--7--7-7---7--7-7-7--7--7-7--3----5-------7--7-7-7-
 |-0------------------0------------------------------0----------
 "Close your eyes and pray..."
 |---------------------------------------------------------------
 |---------------------------------------------------------------
 |---9--9-9-9--9--9-9---9--9-9-9--9--9-9----------------9--9-9-9-
 |---9--9-9-9--9--9-9---9--9-9-9--9--9-9-/7-5-4-----4---9--9-9-9-
 |---7--7-7-7--7--7-7---7--7-7-7--7--7-7--------7-5-----7--7-7-7-
 |-0------------------0-------------------------------0----------
 "He`s evil and mysterious..."     "He`s not here..."
 |--------------------------------|--------------------------
 |--------------------------------|--------------------------
 |-------10--9-------------5--7-9-|-------10--9--------------
 |-7-----10--9----7-----7--5--7-9-|-7-----10--9--5-4---------
 |-7------8--7----7-----7--3--5-7-|-7------8--7------7-5-7-5-
 |-5--------------5-----5---------|-5------------------------
 "no, no no, he`s the lawmaker..."
 -------------------------------
 -------------------------------
 -------------------------------
 -------------------------------
 --------------7----------------
 -7~~~~~~--7-8---8-7-7~~--------
 
 "Silver mountains..."
 |---------------------------------------------
 |(7)---(5)---(7)---(5)------------------------
 |-7-----5-----7-----5----9----7-----9----7----
 |-7-----5-----7-----5----9----7-----9----7----
 |-5-----------5----------7---(7)----7---(7)---
 |---------------------------------------------
 
 |---------------------------------------------------|-----------
 |-------------/5-----------------------/5-----------|----8---10-
 |----------------5---7-5------------------5---7-5---|-/7---/9---
 |---5-5-5--7-------7-----5---5-5-5--7-------7-----5-|-----------
 |-0------------------------0------------------------|-----------
 |---------------------------------------------------|------back to first riff
 
 
 |----------------------------------------------------------
 |----------------------------------------------------------
 |-----------------------------------9---solo----9----------
 |-/7-5-4----------------------------9-----------9----------
 |--------7-5---5--------------------7-----------7----------
 |------------8---8--7--5---3----2---0-----------0----------
 



Текст, аккорды и табулатура для песни "The Law Maker (tab)", исполняет "Black Sabbath".
Используемые в песне аккорды можно найти в разделе Как брать аккорды. Аккорды для шестиструнной гитары. Другие песни можно найти на нашем сайте, воспользовавшись алфавитным указателем вверху страницы.


 
Ошибка в тексте? Выделите ошибку и нажмите Ctrl+Enter