Greetings to All !
Звиняйте народ, тока интро

Intro:

Кажый участок повторить по 4-е раза

e:-----0-----
B:----6-6----
G:---7---7---
D:--8--------
A:-----------
E:-----------

e:-----0-----
B:----6-8----
G:---7---7---
D:--8--------
A:-----------
E:-----------

e:-----8----- Здесь, на первом из повторений струну е надо
B:----6-6---- поюзать посильнее чтоб звук был громче, но
G:---7---7--- постепенно уменьшать, тобишь к 4-му
D:--8-------- повторению она(струна е) не должна 
A:----------- выделяться... а вообще послухайте песню, сразу
E:----------- все станет ясно

e:-----0-----
B:----5-5----
G:---6---6---
D:--7--------
A:-----------
E:-----------

e:-----0-----
B:----5-6----
G:---6---6---
D:--7--------
A:-----------
E:-----------

  Это мой первый опыт подборки, поэтому не судите
  строго! 8-] и оставьте плиз какой-нибудь отзыв.
  С уважением, ваш LLL.


Текст, аккорды и табулатура для песни "Spiral Architect", исполняет "Black Sabbath".
Используемые в песне аккорды можно найти в разделе Как брать аккорды. Аккорды для шестиструнной гитары. Другие песни можно найти на нашем сайте, воспользовавшись алфавитным указателем вверху страницы.


 
Ошибка в тексте? Выделите ошибку и нажмите Ctrl+Enter