Seveth Star
 Black Sabbath - Seventh Star (1986)
 
 
 |------------------------------------------------------------
 |------------------------------------------------------------
 |---5-5---5-5-----2-2---------0-----0------------------------
 |-0-----0-------0------0-2^p0----2^---3p2p0------------------
 |-------------------------------------------3----------------
 |------------------------------------------------------------
 
 "hear the sound of"
 |----------------------------------------------------------
 |----------------------------------------------------------
 |----------------------------------------------------------
 |-12--------10--9------------------------------------------
 |-10---------8--7-10---------------------------------------
 |------------------8---------------------------------------
 
 "the call of the 7th star.."
 |----------------------------------------------------------
 |----------------------------------------------------------
 |-7--109--5--7-----7--9-10--9--5-7------------------------
 |-7--109--5--7-----7--9-10--9--5-7-8--7-------------------
 |-5---87--3--5-----5--7--8--7--3-5-8--7-------------------
 |-----------------------------------6--5-------------------
 
 Solo:
 |----------------------------------------------------------
 |----------------------------------------------------------
 |-10p9h10h12-9h10p9-------9-10-12--------------------------
 |-------------------12-------------------------------------
 |---------------------------------12--10-8-10-10/12--------
 |----------------------------------------------------------
 
 |-------------13-------------12-^--------------------------
 |------13-13^----13^-13p10----------13p10------------------
 |-12^^--------------------12-------------12-10h12p10-9-----
 |------------------------------------------------------12--
 |----------------------------------------------------------
 |----------------------------------------------------------
 
 |----------------------------------------------------------
 |----------------------------------------------------------
 |-10-10----------------------------------------------------
 |-------12p10--------10------------------------------------
 |-------------12--10----1210-8-10-8----8-10/12------------
 |------------------------------------10--------------------
 
 |----------------------------------------------------------
 |----------------------------------------------------------
 |-10^-10---------------------------------------------------
 |--------12-10-12-10------------------------------------10-
 |--------------------10-8-10h12p10p8-10h12p10p8-10h12p10---
 |----------------------------------------------------------
 
 |----------------------------------------------------------
 |--------------------10-13^--13p10-------------------------
 |---------10-10h12p10--------------12----------------------
 |-10h12p10-------------------------------------------------
 |----------------------------------------------------------
 |----------------------------------------------------------end solo
 
 |----------------------------------|-----------------------
 |----------------------------------|-----------------------
 |---5-----5-------5----5---4-4-4-|-----------------------
 |---5-----5-------5----5---4-4-4-|-----------------------
 |-0-----0------0-0----0------------|-----------------------
 |----------------------------------|-----------------------
 |                                  |
 |----------------------------------|-----------------------
 |----------------------------------|-----------------------
 |---4-5-7-7/9----------------------|-----------------------
 |-7--------------------------------|-----------------------
 |----------------------------------|-----------------------
 |----------------------------------|-----------------------
 
 |------------------------|---------------------------------
 |------------------------|---------------------------------
 |--6h7p6-------6h7p6-----|-6h7p6-----6h7p6-----------------
 |--------8-7---------8-7-|-------8-7-------7-7^^^----------
 |------------------------|---------------------------------
 |------------------------|---------------------------------
 
 |-------3--------------------------------------------------
 |-----3---3------------------------------------------------
 |---3-------3----------------------------------------------
 |-5-----------5--(0)-3-2----(back to verse)----------------
 |------------------------3---------------------------------
 |----------------------------------------------------------
 
 
 
 
 



Текст, аккорды и табулатура для песни "Seventh Star (tab)", исполняет "Black Sabbath".
Используемые в песне аккорды можно найти в разделе Как брать аккорды. Аккорды для шестиструнной гитары. Другие песни можно найти на нашем сайте, воспользовавшись алфавитным указателем вверху страницы.


 
Ошибка в тексте? Выделите ошибку и нажмите Ctrl+Enter