No Stranger To Love
 Black Sabbath - Seventh Star (1986)
 
 
 |-----------------------------------------15-12-14-------------------
 |-----12-15^-15^---------17^-^17-17^---------------15-12h15p12----12-
 |-14^----------------------------------------------------------14----
 |--------------------------------------------------------------------
 |--------------------------------------------------------------------
 |--------------------------------------------------------------------
 
 |-------------------------------
 |-------------------------------
 |-12-11-------------------------
 |-------12----14/16-1412-------
 |----------14-------------14----
 |-------------------------------
 "Cold is the night..."                 "ya said that you`d..." 
 |--------------------------------------------------------|--(1st time)
 |--------------------------------------------------------|---------
 |-9-------------------9----------------------------------|-9-12----
 |-9---------9---------9----------9--------7-------7-9-10-|-9-12-12-
 |-7---------9---------7----------9--------7-------7-9-10-|-7-10-12-
 |-0---------7---------0----------7--------5-------5-7--8-|------10-
           "Living on the street..."
 |(2nd time)3---------------------------3------------------------
 |----------0---------------------------0------------------------
 |----7-----0-------7------9-----7------0------7-------9-----7---
 |-7--7-----0-------7------9--9--7------0------7-------9--9--7---
 |-7--5-----2-------5------7--9--5------2------5-------7--9--5---
 |-5--------3-----------------7---------3-----------------7------
 "Im a stranger in your arms..."
 |---------------------------------------------------
 |---------------------7h8-8-8-7---------------------
 |-----0---------------7h9-9-9-7------0--------------
 |---2---2-4-----7------------------2---2-4-----7----
 |-3-------2-----5----------------3-------2-----5----
 |---------------------------------------------------
                         P.M.  ..   ..    ..
 |--------------------------------------------------
 |--------------------------------------------------
 |--------------------------------------------------
 |--------------------4/5-----9---7-----------------
 |-7--5h7--7p5----5h7------9----------9p7-----------
 |-0-----0----0-0----------7----7---7-----7-10------
 
 Solo:
 |-------------15-12-14-12----------------------------------
 |-15^-15-15^--------------15-12----------------------------
 |-------------------------------12-12h14p12p11-------------
 |----------------------------------------------------------
 |----------------------------------------------------------
 |----------------------------------------------------------
 
 |--------------------------------------------12------------
 |------------------------h---------------------15-12-------
 |-11h12-14--12-11h12p11-11-12-14-11h12p11-/14--------14----
 |----------------------------------------------------------
 |----------------------------------------------------------
 |----------------------------------------------------------
 
 |-------------------------------17-----------------------------
 |---------------------------17^----17-17^-1715-12-------------
 |-11h12p11-----------------------------------------14p12p11----
 |----------12----------------------------------------------12--
 |-------------14~~~~~------------------------------------------
 |--------------------------------------------------------------
 
 |----------------14-------------------14-----------------------
 |-------------------15-12-15p12----12----15-12----12-----------
 |-14p12p11-12-14----------------14-------------15---15-14-12---
 |-----------------------------------------------------------14-
 |--------------------------------------------------------------
 |--------------------------------------------------------------
 
 |--------------------------
 |--------------------------
 |-14-12----12---------let ring
 |-------14---14-12---------
 |------------------14~~----
 |--------------------------
 
 
 



Текст, аккорды и табулатура для песни "No Stranger To Love (tab)", исполняет "Black Sabbath".
Используемые в песне аккорды можно найти в разделе Как брать аккорды. Аккорды для шестиструнной гитары. Другие песни можно найти на нашем сайте, воспользовавшись алфавитным указателем вверху страницы.


 
Ошибка в тексте? Выделите ошибку и нажмите Ctrl+Enter