Some people say my love can not be true...
          ------------------------------------
          |5-4-----------7b(9)-7-5-----------5-4----------
          ||--7-7-5-7-------7-7-5-7-------------7-7-5-7-------7-7-5-7-
          ------------------------------------
                       1st x
          -----------||-----9-9-9---------7-7-7---------5-5-5--------4
          ---------5-||---9-------9-----7-------7-----5-------5-----4-
          -----5h7---||-7-----------7-5-----------5-3-----------3-2---
          -5h7--------------------------------
                     2nd & 4th x Your love for me...
          -4-4-----|-----9--9---------7--7---------5--5---------------
          -----4---|---9------9-----7------7-----5------5-------------
          -------2-|-7----------7-5----------5-3----------3-2-2-2-2-2-
          ------------------------------------------------
 
          -------9--9---------7--7---------5--5---------------------5-
          -----9------9-----7------7-----5------5-----------------5---
          -2-7----------7-5----------5-3----------3-2-2-2-2-2-2-3-----
          ------------------------------------------------------------
                                                  3rd x (Solo)
          --5---------4--4---------5--5----------|-----9-9-9---------7
          ----5-----4------4-----5------5--------|---9-------9-----7--
          ------3-2----------2-3----------3-2----|-7-----------7-5----
          ------------------------------------------------
 
          -7-7---------5-5-5---------4-4-4----------------------------
          -----7-----5-------5-----4-------4--------------------------
          -------5-3-----------3-2-----------2-7--7-7-7--7-7-7--7-7-7-
          ------------------------------------------------------------
 
          ------------------------------------------------------------
          ------------------------------------------------------------
          -7-7-5--5-5-5--5-5-5--5-5-5--5-5-3--3-3-3--3-3-3--3-3-3--3-3
          ------------------------------------------------------------
 
          ------------------------------------------------------------
          ------------------------------------------------------------
          -2--2-2-2--2-2-2--2-2-2--2-2-7-7-7-7-7--------5-5-5-5-5-----
          ------------------------------------------------------------
 
          -------------------------------4-4-------------------7h9-9-9
          ---------------------------4-4-----4-4-----------7h9--------
          ----3-3-3-3-3----------2-2--------------7--7-7-7------------
          ------------------------------------------------------------
 
          -9-9-9-7----------------5h7-7-7-7-7-7-5-----------------3h5-
          ---------9----------5h7-----------------7-----------3h5-----
          -----------5--5-5-5------------------------3--3-3-3---------
          ------------------------------------------------------------
                                                        5th (2nd solo)
          -5-5-5-5-5-3----------------2h4-4-4-4-4-4-2---|-----9-9-9---
          -------------5----------2h4-----------------4-|---9-------9-
          ---------------2--2-2-2-----------------------|-7-----------
          ------------------------------------------------
 
          -------7-7-7---------5-5-5----------4-4-4-------------------
          -----7-------7-----5-------5------4-------4-----------------
          -7-5-----------5-3-----------3-2------------2-7--7-7-7--7-7-
          ------------------------------------------------------------
 
          ------------------------------------------------------------
          ------------------------------------------------------------
          -7--7-7-7--7-7-5--5-5-5--5-5-5--5-5-5--5-5--3--3-3-3--3-3-3-
          ------------------------------------------------------------
 
          -----------------------------------------------------7h9-9-9
          -------------------------------------------------7h9--------
          -3-3-3--3-3-2--2-2-2--2-2-2--2-2-2--2-2-7--7-7-7------------
          ------------------------------------------------------------
 
          -9-9-9-7----------------5h7-7-7-7-7-7-5------------------3h5
          ---------9----------5h7-----------------7------------3h5----
          -----------5--5-5-5-------------------------3--3-3-3--------
          ------------------------------------------------------------
 
          -5-5-5-5-5-3----------------2h4-4-4-4-4-4-2-----------------
          -------------5----------2h4-----------------4-------------9-
          ---------------2--2-2-2-----------------------7--7-7-7--7---
          ------------------------------------------------------------
 
          -9-9-9-9-9-9-9-------------------7-7-7-7-7-7-7--------------
          ---------------9---------------7---------------7------------
          -----------------7-5--5-5-5--5-------------------5-3--3-3-3-
          ------------------------------------------------------------
 
          -----5-5-5-5-5-5-5-------------------4-4-4-4-4-4-4----------
          ---5---------------5---------------4---------------4--------
          -3-------------------3-2--2-2-2--2-------------------2-7--7-
          ------------------------------------------------------------
 
          ------------9-9-9-9-9-9-7------------------7-7-7-7-7-7-5----
          ----------9---------------9--------------7---------------7--
          -7-7-7--7-------------------5--5-5-5---5-------------------3
          ------------------------------------------------------------
 
          -------------5-5-5-5-5-3------------------------------------
          -----------5-------------5----------------------------------
          --3-3-3--3-----------------2-2-2-2-2-2-2-2-2---------7-7-7-7
          ------------------------------------------------------------
 
          ----------------|| b=bend
          ----------------||( )=bend to
          -7-7--------7--|| h=hammer-on
          ----------------|| =slide down



Текст, аккорды и табулатура для песни "N.I.B. (btab)", исполняет "Black Sabbath".
Используемые в песне аккорды можно найти в разделе Как брать аккорды. Аккорды для шестиструнной гитары. Другие песни можно найти на нашем сайте, воспользовавшись алфавитным указателем вверху страницы.


 
Ошибка в тексте? Выделите ошибку и нажмите Ctrl+Enter