tune down 1 1/2 steps low to high (C# F# B E)
         Intro 2x
         |5-6-------------5------------------------5---
         ||--------7------5-7--7----5---5-----------7--7-7---5---5-
         -7-------5--5-7--7--------7-------
         ||-----5--------------------------------------------------
                                                       vocal riff
         -------5-6-------------5--------------------||---------7/9
         ----7------5-7--7----5---5-----------7--7-7-|-
         -------------------7-------5--5-7--7--------||-5/75-5----
         -5------------------------------------------|-
                                         
         7---7----------------------7/97---7---------------||----
         -------------5-7-3--------------------------5-7-3---||----
         ---5---5/75--------5/75-5-------5---5/75---------||----
         ----------------------------------------------------||-10-
         Killing your self to live___________
         ----------------------------------------------------------
         ---------------------------------------------8-8-8-8-7-7-7
         -------------------------8-8------------------------------
         10-10-10-10--10-8-8-8-8-----8-7-7-7-7-7-7--------------
 
         ----------------------------------
         -7--------------------------------
         ---||-0-----0---0---0---0----0-0-0-0-0-0-0-0-0-0-0-0-0-0-0
         ----------------------------------
                    hold this for a long time
         ----------------------------------------------
         ----------|5h7-7-7-7-5h7-7-7-7-5h7-7-7-7-5h7-7-5---5h7-7-7
         0-0-0-0-0----------------------------7--------
         ----------------------------------------------
 
         ---------------------------------||------7--7-5h6p5-------
         -7-5h7-7-7-7-5h7-7-7-7-5h7-7-5---||-7--7------------7-7--7
         -------------------------------7--
         ----------------------------------
                      sometmes ending w/ this              2nd solo 
         -7--7-5h6p5----------7--7-5h6p5------||-------
         ------------|-5------5------7--7------------7-7--||-------
         -------------------------------------||---5-3-
         ------------|----8------8------------------------||-5-----
          & vocal riff   outro
         --------------------------------||
         --------------------------------||
         -0------5-3-0-||-5--5--------------5--5-------------5--5||
         ---5--5-------------------------||
         look out, the main riff is a little tricky



Текст, аккорды и табулатура для песни "Killing Yourself To Live (btab)", исполняет "Black Sabbath".
Используемые в песне аккорды можно найти в разделе Как брать аккорды. Аккорды для шестиструнной гитары. Другие песни можно найти на нашем сайте, воспользовавшись алфавитным указателем вверху страницы.


 
Ошибка в тексте? Выделите ошибку и нажмите Ctrl+Enter