Iron Man - Black Sabbath

Tabbed by:Josh McLean  (Maverick_Tabber)
Email:[email protected]
Im Tired of people ruining this song with horrible tabs!! Heres the real stuff! Enjoy!
Tuning:E
Tempo=64 (Slow Rock)
Copyright 1970-1974 Westminister Music Ltd. Used by Permission

e|----------------------------------------------------------------------------|
B|----------------------------------------------------------------------------|
G|----------------------------------------------------------------------------|
D|----------------------------------------------------------------------------|
A|----------------------------------------------------------------------------|
E|---0-------------------------------------0 ---------------------------------|
Bend string behind nut     X2

e|---------------------------------------------------------------------------|
B|---------------------------------------------------------------------------|
G|---------------------------------------------------------------------------|
D|---------------------------------------------------------------------------|
A|----9-----12------12/14----14------1716--1716--17--12---12/14--14--------|
E|----7-----10------10/12----12------1514--1514--15--10---10/12--12--14---|

e|---------------------------------------------------------------------------|
B|---------------------------------------------------------------------------|
G|---------------------------------------------------------------------------|
D|---------------------------------------------------------------------------|
A|---------------------------------------------------------------------------|
E|----7-----10----10/12----12----15-14--15-14--15-14--10----10/12--12//20---|

e|----------------------------------------------------------------------------|
B|----------------------------------------------------------------------------|
G|----------------------------------------------------------------------------|
D|----------------------------------------------------------------------------|
A|-----------5p---------------------------------------------------------------|
E|----7--7----------7---6---5--5--5----0--4--5--5--6------------5--5--5-------|
            1/2
e|----------------------------------------------------------------------------|
B|----------------------------------------------------------------------------|
G|----------------------------------------------------------------------------|
D|-----------------------9------------------------------------------7---------|
A|-----------------------7------------------------------------------5---------|
E|----------------------------------------------------------------------------|

e|----------------------------------------------------------------------------|
B|----------------------------------------------------------------------------|
G|----------------------------------------------------------------------------|
D|-----------------------------7--8--9----------------------------------------|
A|---9--9---------7--7--8--9--------------------------------------------------|
E|---7--7---7-10--------------------------------------------------------------|

e|----------------------------------------------------------------------------|
B|----------------------------------------------------------------------------|
G|----------------------------------------------------------------------------|
D|---11--9--------------------------------------------------------------------|
A|-----------11----10----9-----7----------------------------------------------|
E|-----------------------------------7--7--9--9-------------------------------|
X2
GUITAR SOLO ~~Double Time
e|---------------------------------------------------------------------------|
B|-------------------------------------------------------------5-------------|
G|---------------------------------------------4---4---4---6------6----------|
D|----------2---4-- 4--2--------2---4-----4/6--------------------------------|
A|---2---4-----------------4-------------------------------------------------|
E|---------------------------------------------------------------------------|

e|----------------------------------------------------------------------------|
B|-----------5---5------------------------------------------------------------|
G|--6--4-------------6--4-------4---6-----------------------------------------|
D|--------6----------------6--------------------------------------------------|
A|----------------------------------------------------------------------------|
E|----------------------------------------------------------------------------|

e|--------------------9------------------------------------------------------|
B|--------------9p-------12-9-------9----------------------------------------|
G|-6-------11--11-------------11----9--9--9p---------------------------------|
D|----------------------------------------------11--9--9--11-----------------|
A|---------------------------------------------------------------------------|
E|---------------------------------------------------------------------------|

e|---------------9-----------------------------------------------------------|
B|-----------9------12--9-------9--12-9--------------------------------------|
G|-9-11p-------------------11-9----------------------------------------------|
D|---------------------------------------------------------------------------|
A|---------------------------------------------------------------------------|
E|---------------------------------------------------------------------------|

e|-----------------------9-------9-----------12p----12p----(12)---------------|
B|------9---12-9------9----12p------12--9--9----------------------------------|
G|--11-----------11-9---------------------------------------------------------|
D|----------------------------------------------------------------------------|
A|----------------------------------------------------------------------------|
E|----------------------------------------------------------------------------|

e|--12p--(12)--9-12-9-----9--------------------------------------------------|
B|--------------------12-----12-12p------------------------------------------|
G|---------------------------------------------------------------------------|
D|---------------------------------------------------------------------------|
A|---------------------------------------------------------------------------|
E|---------------------------------------------------------------------------|

e|-------9---------------9----------------------------------------------------|
B|--12p----12-9-------9-----12-9----------------------------------------------|
G|--------------11p--------------11--11-9-----9--9----------------------------|
D|----------------------------------------11--------11-9----9--11-------------|
A|-------------------------------------------------------11-------------------|
E|----------------------------------------------------------------------------|

e|----------------------------------------------------------------------------|
B|------------------------0---------------------------------------------------|
G|-9--9----------------9------------------------------------------------------|
D|------11-9----9--11---------------------------------------------------------|
A|-----------11---------------------------------------------------------------|
E|----------------------------------------------------------------------------|

e|---------------------------------------------------------------------------|
B|---------------------------------------------------------------------------|
G|---------------------------------------------------------------------------|
D|---9-11---9-11------9-11-----9-11----9-11---9-11----9-11----9 11---9-11----|
A|---------------------------------------------------------------------------|
E|---------------------------------------------------------------------------|

e|----------------------------------------------------------------------------|
B|----------------------------------------------------------------------------|
G|----------------------------------------------------------------------------|
D|-9-11----9-11----9-11-------------------------------------------------------|
A|----------------------------------------------------------------------------|
E|----------------------------------------------------------------------------|
Interlude ~~ END DOUBLE TIME

e|---------------------------------------------------------------------------|
B|---------------------------------------------------------------------------|
G|---------------------------------------------------------------------------|
D|---------------------------------------------------------------------------|
A|---------------------------------------------------------------------------|
E|--5----5----5--------------------------------------------------------------|
OUTRO

e|----------------------------------------------------------------------------|
B|----------------------------------------------------------------------------|
G|----------------------------------------------------------------------------|
D|----------------------------------------------------------------------------|
A|----------------------------------------------------------------------------|
E|-0--------------------------(0)---------------------------------------------|
Bend Behind Nut

e|---------------------------------------------------------------------------|
B|---------------------------------------------------------------------------|
G|---------------------------------------------------------------------------|
D|--------------------------------------4--5--4--5---4-5-4-------------------|
A|--7--5--7----5--7--5-----7--5--7-------------------------5-----------------|
E|---------------------------------------------------------------------------|

e|----------------------------------------------------------------------------|
B|----------------------------------------------------------------------------|
G|--------------------7-------------------------------------------------------|
D|---------7----7//9----9--9p-----(9)-------9p----(9) 7-9-7-9-9---------------|
A|--5/7------5----------------------------------------------------------------|
E|----------------------------------------------------------------------------|

e|--------------------1010112--12p---12p----12p----12----(12)-10-12-10--------|
B|-------8----10/12----------------------------------------------------X------|
G|---------9------------------------------------------------------------------|
D|----------------------------------------------------------------------------|
A|----------------------------------------------------------------------------|
E|----------------------------------------------------------------------------|

e|--10------------------------------------------------------------------------|
B|------121210--8//10---8----------------------------------------------------|
G|--------------------------9---7---------------------------------------------|
D|----------------------------------------------------------------------------|
A|----------------------------------------------------------------------------|
E|----------------------------------------------------------------------------|

e|---------------------------------------------------------------------------|
B|-----------8--------------17p-----(17)17p------(17)-----17--15-------------|
G|-----9---------------------------------------------------------------------|
D|---------------------------------------------------------------------------|
A|---------------------------------------------------------------------------|
E|---------------------------------------------------------------------------|

e|----------------------------------------------------------------------------|
B|----------------------------------------------------------------------------|
G|----------------------------------------------7-----7--9--------------------|
D|-----97-5--7-5-----5---7---------5--7--7//9-----9--------------------------|
A|-----------------7----------5--7--------------------------------------------|
E|----------------------------------------------------------------------------|

e|---------------------------------------------------------------------------|
B|---------------------------------------------------------------------------|
G|-9p----(9)-9p-----(9)9p---------------------------------------------9p-----|
D|---------------------------------------------------------------------------|
A|---------------------------------------------------------------------------|
E|---------------------------------------------------------------------------|

e|---------------------------------------------------------------------------|
B|---------------------------------------------------------------------------|
G|--(9)--(9)-9p---9p-----7-9-7----7------------------------------------------|
D|-----------------------------9----97--5--7----5--7------------------------|
A|---------------------------------------------------------------------------|
E|---------------------------------------------------------------------------|

e|---------------------------------------------------------------------------|
B|---------------------------------------------------------------------------|
G|----------------------------------(9) 9p-----(9)---------------------------|
D|-7p-----7p----7p-----(7)---5-----------------------------------------------|
A|------------------------------7--------------------------------------------|
E|---------------------------------------------------------------------------|

e|----------------------------------------------------------------------------|
B|----------------------------------------------------------------------------|
G|----------------------------------------------------------------------------|
D|-----7//9--9-----97--5---7---5--7---5--------------------------------------|
A|----------------------------------------7----5------------------------------|
E|----------------------------------------------------------------------------|

e|---------------------------------------------------------------------------|
B|---------------------------------------------------------------------------|
G|---------------------------------------------------------------------------|
D|---------------------------------------------------------------------------|
A|-------------------------------------------------7----5----7---------------|
E|---------------------------------------------------------------------------|

Phew thats a long one!! Just keep one thing in mind...If you see the name 
know you have a Band Certified tab!!
| /  slide up
|   slide down
| h  hammer-on
| p  pull-off
| ~  vibrato
| +  harmonic
| x  Mute note
===============================================================================


Текст, аккорды и табулатура для песни "Iron Man (ver 15)", исполняет "Black Sabbath".
Используемые в песне аккорды можно найти в разделе Как брать аккорды. Аккорды для шестиструнной гитары. Другие песни можно найти на нашем сайте, воспользовавшись алфавитным указателем вверху страницы.


 
Ошибка в тексте? Выделите ошибку и нажмите Ctrl+Enter