-------------------------------------------------------------------------------
			     Iron Man - Black Sabbath
-------------------------------------------------------------------------------

Tuning:
Standard E A D G B E

Hit the low E string 3 times slowly behind the nut
     
Intro
e|---------------------------------------------------------------------------|
B|---------------------------------------------------------------------------|
G|-----5---79--9--1211--1211--127--7/9--9--------------------------------|
D|--9--7---79--9--1211--1211--127--7/9--9--------------------------------|
A|--9--7---57--7--109---109---105--5/7--7--------------------------------|
E|--7------------------------------------------------------------------------|

Verse 1
e|---------------------------------------------------------------------------|
B|---------------------------------------------------------------------------|
G|---------------------------------------------------------------------------|
D|---------------54--5h4--5h4-----------------------------------------------|
A|----5--5/7-7------------------5--5/7--7---/17------------------------------|
E|-7-------------------------------------------------------------------------|

Verse 2
e|---------------------------------------------------------------------------|
B|---------------------------------------------------------------------------|
G|---------------------------------------------------------------------------|
D|---------------------------------------------------------------------------|
A|------5b-------------------------------------------------------------------|
E|-7-7-----7--6-555-0-4-55-6-------------------------------------------------|

Verse 3
e|---------------------------------------------------------------------------|
B|---------------------------------------------------------------------------|
G|---------------------------------------------------------------------------|
D|-9--7----------------------789---------------------------------------------|
A|-7--5--9-9---------7--789--------------------------------------------------|
E|-------7-7--7--10----------------------------------------------------------|

Verse 4
e|---------------------------------------------------------------------------|
B|---------------------------------------------------------------------------|
G|---------------------------------------------------------------------------|
D|-9-----7-------------------------------------------------------------------|
A|-7-----5-------------------------------------------------------------------|
E|---------------------------------------------------------------------------|
      play slow

Solo
e|---------------------------------------------------------------------------|
B|---------------------------------------------------------------------------|
G|--------------------------------------------------------------------9------|
D|-11--9----------------------------------------------------9-9-9h11-----11--|
A|-------11-10-9---7----------------7-7h9--9p7----79---9/11------------------|
E|--------------------7-7h9-9--7-9-------------9-----------------------------|

e|------------------------------------------------9--------------------------|
B|------------------------------------------------9--12p9--------------------|
G|-----------9-9-----------------------9--11-11b----------11-----------------|
D|-11h9-----------11p9------9h11--11-----------------------------------------|
A|-------11-------------11---------------------------------------------------|
E|---------------------------------------------------------------------------|

Solo End
e|---------------------------------------------------------------------------|
B|---------------------------------------------------------------------------|
G|---------------------------------------------------------------------------|
D|-11--9---------------------------------------------------------------------|
A|-------11-10-9---7---------------------------------------------------------|
E|---------------------7-7h9-9-----------------------------------------------|


| /  slide up
|   slide down
| h  hammer-on
| p  pull-off
| ~  vibrato
| +  harmonic
| x  Mute note


Текст, аккорды и табулатура для песни "Iron Man (ver 10)", исполняет "Black Sabbath".
Используемые в песне аккорды можно найти в разделе Как брать аккорды. Аккорды для шестиструнной гитары. Другие песни можно найти на нашем сайте, воспользовавшись алфавитным указателем вверху страницы.


 
Ошибка в тексте? Выделите ошибку и нажмите Ctrl+Enter