Hot Line
 Black Sabbath - Born Again (1983)
 
 
 |--------------------------------------------
 |--------------------------------------------
 |-------3-5-3-5-3-5p3-------3-5-3-5p3-5-3----
 |-3/5-5-3-5-3-5-3-5p3-3/5-5-3-5-3-5p3-5-3----
 |-3/5-5---------------3/5-5------------------
 |-1/3-3---------------1/3-3------------------
 
 |--------------------------------------------
 |--------------------------------------------
 |--------3-5-3-5-3-5p3-------3-5-3-65-3-----
 |----5-5-3-5-3-5-3-5p3-3/5-5-3-5-3-65-3-5---
 |----5-5---------------3/5-5-------------5---
 |1-2-3-5---------------1/3-3-------------3---
 
 "when will you show me..."
 |----------------------------------------------------------
 |---------------------------------3---6----8---10----------
 |---------------------------------5^--8^--10^--12^---------
 |-6--------6--8--10-----8--6--5----------------------------
 |-6--------6--8--10-----8--6--5----------------------------
 |-4--------4--6---8-----6--4--3----------------------------
 
 "when will you throw me a line"
 |----------------------------------------------------------
 |----------------------------------------------------------
 |----------------------------------------------5-----------
 |-6--------6--8--10-----8--6--8----------------5-----------
 |-6--------6--8--10-----8--6--8----------------3-----------
 |-4--------4--6---8-----6--4--6------------------back to 1st riff
 
 Solo:
 |----------------------------------------------------------
 |----------------------------------------------------------
 |-------------------------------------8^-8^-8^-------------
 |--------------------8p7----8-10^-^ ^----------8-----------
 |-10--8--8h10---8-10-----10----------------------10--------
 |----------------------------------------------------------
 
 |----------------------------------------------------------
 |----------------------------------------------------------
 |----10^--^10-7-75----------------------------------------
 |-/12---------------8-10-8-10^-10--------8-10h12p108------
 |---------------------------------10--10--------------10---
 |----------------------------------------------------------
 
 |----------------------------------------------------------
 |----------------------------------------------------------
 |--------------------------/7------------------------------
 |-10h12p108----10h12p108----8-10^-^10p8------------------
 |------------10---------------------------10---------------
 |----------------------------------------------------------
 
 |-----------------------------------------------------------
 |-------------------------------14-14p12-12-12-12p10-10-----
 |-------------------------------14-14p13-12-12-12p11-11-----
 |-3---5-55555555555--3---5---7--14-14p14-12-12-12p12-12-7-7-
 |-3---5-55555555555--3---5---7--------------------------7-7-
 |-1---3-33333333333--1---3---5--------------------------5-5-
 
 |---------------------------
 |---------------------------
 |-------------------5--3----
 |-----5-------------5--3----
 |---7----------5----3--1----
 |-8------7--5---------------
 
 
 
 
 



Текст, аккорды и табулатура для песни "Hot Line", исполняет "Black Sabbath".
Используемые в песне аккорды можно найти в разделе Как брать аккорды. Аккорды для шестиструнной гитары. Другие песни можно найти на нашем сайте, воспользовавшись алфавитным указателем вверху страницы.


 
Ошибка в тексте? Выделите ошибку и нажмите Ctrl+Enter