Heart Like A Wheel
 Black Sabbath - Seventh Star (1986)
 
 
 |----------------------------------------------------------
 |---------------------------4---------10/13-13-13/15-------
 |------5-5----------------5-5------------------------12/14-
 |------5-5----------------5-4----------7/10-10-10/12-------
 |----------------5h7----------------0----------------10/12-
 |-5--5--------5------5--5------0-3^------------------------
 
 |----------------------------------------------------------
 |----------------------------------------------------------
 |-14/16-16/17-12-12/14-16-1716-17-1816-16-16/17-12-------
 |----------------------------------------------------------
 |-12/14-14/15-10-10/12-14-1514-15-1614-14-14/15-10--/12--
 |----------------------------------------------------------
 
 |----------------------------------------------------------
 |----------------------------------------------------------
 |---------------------------------------12-----------------
 |-10p9------------9h10h12p9-12/14-12h14----12-10p9---------
 |------10-12---------------------------------------12------
 |----------------------------------------------------------
 
 |------------------------------------------------------------
 |------------------------------------------------------------
 |------12--------------12--------------12-10-910910910910----
 |-9h10----10p9----9h10----9h10----9h10-----------------------
 |--------------12--------------12----------------------------
 |------------------------------------------------------------
 
 |-------------------------------5-8^~---5----------------------
 |------------------------------5----------8-5------------------
 |79797979575757454545----5h7---------------8-7-5-7h8p7p5-5~-
 |------------------------5/7-----------------------------------
 |--------------------------------------------------------------
 |--------------------------------------------------------------
 
 |----------------------------------------------------------
 |----------------------------------------------------------
 |-5--------------------------------------------------------
 |---5-/7-p5------------------------------------------------
 |-----------7--5------565----------------------------------
 |-----------------8~------8-5------------------------------
 
 |----------------------------------------------------------
 |----------------------------4-----------------------------
 |------5-5-----------------5-5-----------------5-5---------
 |------5-5-----------------5-4-----------------5-5---------
 |----------------5/7-----------------5h7-------------------
 |-5--5-------0-3-----5--5--------0-3-----5--5--------------
 
 "You say you don`t love me..."
 |----------------------------------------------------------
 |------------(5)------------------------5------------------
 |---------(5)---(5)-------------------5---5----------------
 |------(7)---------(7)--------------7----------------------
 |---8-----------------7~~---5-7-8----------7~-------------
 |----------------------------------------------------------
 "but don`t leave me standing there..." 1st time:***********
 |----------------------------------------------------------
 |-----------5----------------------------------------------
 |---------5---5--------------------------------------------
 |-------7-------7----------------5h7--------------5h7------
 |-5-7-8-----------7------------------6~---------------6~---
 |---------------------8--7--5--5----------0-3^-5-----------
 ********************************************
 |----------------------------------------------------------
 |----------------------------------------------------------
 |----------------------------------------------------------
 |---------------7p5------------------7p5-------------------
 |-----5/7-----------6~-------------------6~----------------
 |-0-3-----5--5------------0-3-/5--5------------------------
 
 
 2nd time:****************************
 |----------------------------------------------------------
 |----------------------------------------------------------
 |----------4/5------------------4/5------------------------
 |------75-4/5--------------75-4/5------------------------
 |------75---------5/7------75----------------------------
 |-5--5---------0-3-----5--5--------------------------------
 
 



Текст, аккорды и табулатура для песни "Heart Like A Wheel (tab)", исполняет "Black Sabbath".
Используемые в песне аккорды можно найти в разделе Как брать аккорды. Аккорды для шестиструнной гитары. Другие песни можно найти на нашем сайте, воспользовавшись алфавитным указателем вверху страницы.


 
Ошибка в тексте? Выделите ошибку и нажмите Ctrl+Enter