Black Sabbath - Fairies Wear Boots (03)
(Normal Tuning)


Intro
|---------------------------------------------------------------------------------------|
|---------------------------------------------------------------------------------------|
|--------3-----------3----------------3-----------3----------------3----------3----3----|
|------3---5--5----3---5--3h5-------3---5--5----3---5--3h5-------3---5--5---3---5----5--|
|----5-----------5----------------5-----------5----------------5----------5-------------|
|--3----------------------------3----------------------------3--------------------------|

|-----------------------------------------------------------------------------|
|-----------------------------------------------------------------------------|
|----5-5p4---4---------------5-5p4---4-------------------5p4---4--------------|
|-/7-------7---7-5-5h7-5h7---------7---7-5-5h7-5h7-----5-----7---7-5-5h7-5h7--|
|--------------------------------------------------5h7------------------------|
|-----------------------------------------------------------------------------|

|------------------------------||-5/7--10-10///------7-5-5/7--|
|------------------------------||-------------------------------|
|-5p4---5p4---5p4---5p4---4----||-2/4---7--7///------4-2-2/4--|
|-----7-----7-----7-----7---7--||-------------------------------|
|------------------------------||-------------------------------|
|------------------------------||-------------------------------|

|--12=1210--7=75----5/7---5/7-10-10/12=12u--7-5-5/7---7-7/10-12-12/14-10u-|
|---------------------------*----------------------------*--------------------|
|------9 7----42--2=2/4---2/4--7--7 /9^10u--4-2-2/4---4-4 /7--9--9/11--7u-|
|-----------------------------------------------------------------------------|
|-----------------------------------------------------------------------------|
|-----------------------------------------------------------------------------|


Bridge
|-----------------------------|
|-----------------------------|
|--9-7----------9-7---------|
|--9-7---9-7---9-7---9-7--|
|--7-5---9-7---7-5---9-7--|
|---------7-5----------7-5--|


Solo
|--------------------------9-----------------12^-12^---12p9------9------------|
|------------------------9---12-12^----12p9-----------------9h12---12-9-9-----|
|-------------------9-11^-----------------------------------------------------|
|--------------9-11-----------------------------------------------------------|
|--9-10-11--------------------------------------------------------------------|
|--7--8--9--------------------------------------------------------------------|
                                                            
|-------------------9-----------------------------9---------------------------|
|-----------------9--12-------------------------9---12-------------9----------|
|--11-11---(11^13)------(11^13)-(11^13)-(11^12)--------(11^**)-9------12p11p9-|
|-----------------------------------------------------------------------------|
|-----------------------------------------------------------------------------|
|-----------------------------------------------------------------------------|

|--------------------9-------------------|
|------------------9---12--9-------------|
|-11p10p9----11^(**)---------(11^12)--9--|
|----------------------------------------|
|----------------------------------------|
|----------------------------------------|


Verse
|-------------------------------------|
|-------------------------------------|
|-------------------------------------|
|---------------5---------------------|
|--5-5--8-8--5--3-----5-5--8-8--5--3--|
|--3-3--6-6--3--------3-3--6-6--3--1--|


Bridge
|----------------------------|
|----------------------------|
|----------------------------|
|--3h5-(3)h5-------3---------|
|--------------3-5---5-------|
|----------------------3^-^--|


Solo
|------------------------------------------------------------------|
|--3--/-6--/--8-/15(1)--3--/-6--/--8-/15(1)--3--/-6--/--8--/-10--|
|--5^-/-8^-/-10^/--------5^-/-8^-/-10^/--------5^-/-8^-/-10^-/-12^-|
|------------------------------------------------------------------|
|------------------------------------------------------------------|
|------------------------------------------------------------------|

|-------15------------------------18^-18^-p15-18p15---18p15-------------|
|----15----18^-18^-18^-18^-^---15------------------18-------18-18p15----|
|-17-----------------------------------------------------------------17-|
|-----------------------------------------------------------------------|
|-----------------------------------------------------------------------|
|-----------------------------------------------------------------------|

|-------15--------------------15-------------|
|----15----18p15-----------15----18p15-------|
|-17^------------17-15-17^-------------17-15-|
|--------------------------------------------|
|--------------------------------------------|
|--------------------------------------------|

|---------------------3-------------3---------------3--------------3-------------|
|---3---------------3---6p3-----------6p3---------3---6p3--------3---6p3---------|
|---3--------3---5^---------5-3--5^-------5-3--5^---------5-3-5^---------5-5p3---|
|-5----5-3-5-------------------------------------------------------------------5-|
|--------------------------------------------------------------------------------|
|--------------------------------------------------------------------------------|


Bridge
|----------------------------|
|----------------------------|
|----------------------------|
|--3h5-(3)h5-------3---------|
|--------------3-5---5-------|
|----------------------3^-^--|


Outro
|--5h6---5-----5h6---5------|
|------8---6h8-----8---6h8--|
|---------------------------|
|---------------------------|
|---------------------------|
|---------------------------|


Текст, аккорды и табулатура для песни "Fairies Wear Boots", исполняет "Black Sabbath".
Используемые в песне аккорды можно найти в разделе Как брать аккорды. Аккорды для шестиструнной гитары. Другие песни можно найти на нашем сайте, воспользовавшись алфавитным указателем вверху страницы.


 
Ошибка в тексте? Выделите ошибку и нажмите Ctrl+Enter