riff1
 
|------------------------|
|------------------------|
|------------------------|
|------h-----------------|
|-----3-4-3-------h------|
|-1-1---------1-3-4-3----|


Song riff

|-------------------|
|-------------------|
|-------------------|
|-------------------|
|-----3----2----1---|
|-1--------------4--|

fill1

|--------------|
|--------------|
|--------------|
|--5---4---3---|
|--3---2---1---|
|--------------|



riff2

|---------12--12-12--12--12--12--12-12----|
|---------12--12-12--12--12--12--12-12----|
|---------12--12-12--12--12--12--12-12----|
|-----------------------------------------|
|-8-6-8-----------------------------------|
|-6-4-6-----------------------------------|



Riff3
|------------------------------------------|
|-------9--11--9--/13------9--11--/13------|
|---10-----------------10--------------10--|
|------------------------------------------|
|------------------------------------------|
|------------------------------------------|

riff4
(that part when Ozzy goes: Electric funeral!!)
|-----)---)---)---)---|
|---15--15--15--15----|
|---------------------|
|---------------------|
|---------------------|
|---------------------|



riff5
|--------------------------|
|--------------------------|
|--------------------------|
|-13--13--13--15---/19
--|
|--------------------------|
|--------------------------|


Текст, аккорды и табулатура для песни "Electric General", исполняет "Black Sabbath".
Используемые в песне аккорды можно найти в разделе Как брать аккорды. Аккорды для шестиструнной гитары. Другие песни можно найти на нашем сайте, воспользовавшись алфавитным указателем вверху страницы.


 
Ошибка в тексте? Выделите ошибку и нажмите Ctrl+Enter