Danger Zone
 Black Sabbath - Seventh Star (1986)
 
 
 |----------------------------------------------------------
 |----------------------------------------------------------
 |-----5-----2-----4--4-4---------------5-----2-----4-4-4---
 |-----7-----3-----5--5-5---------------7-----3-----5-5-5---
 |-0-0---0-0---0-0--------------5/6-0-0---0-0---0-0---------
 |------------------------0-3/4-----------------------------
 
 |----------------------------------------------------------
 |----------------------------------------------------------
 |---------------5-----2-----4--4-4---9-7-5--5-----5-----5--
 |---------------7-----3-----5--5-5--10-9-7--7-----7-----7--
 |-------5/6-0-0---0-0---0-0-------------------0-0---0-0----
 |-0-3/4----------------------------------------------------
 
 "all day long, im pushed and..."
 |----------------------------------------------------------
 |----------------------------------------------------------
 |-----4-5-7-7-7-7-7-7-7-7----------------------------------
 |-7-7-----7-7-7-7-7-7-7-7----------------------------------
 |---------5-5-5-5-5-5-5-5---3~--2~------back to 1st riff---
 |-----------------------------------3~---------------------
 
 Backing for solo: at 2:30
 |----------------------------------------------------------
 |----------------------------------------------------------
 |----------------------------------------------------------
 |--7--7--7---5--7--9--10--7--------------------------------
 |--5--5--5-0-3--5--7---8--5---3--3--5-5-5-5-5-5------------
 |-----------------------------1--1--3-3-3-3-3-3------------
 
 |----------------------------------------------------------
 |----------------------------------------------------------
 |----------------------------------------------------------
 |-2-2-------------------------2-2--------------------------
 |-0-0-------------0-2-3---2---0-0-------------0-2-3---2----
 |-----3-2-3-222-3-------3---3-----3-2-3-222-3-------3---3--
 
 "aint gonna fell no hurt..."
 |-------------------------------------------------||---------
 |-------------------------------------------------||---------
 |-------------------------------------------------||---5-----
 |-------------------------------------------------||-3-5-5-7-
 |-3-3-3-3-3-3-3-3-3-3-3-3-7-7-7-7-7-7-7-7-7-7-7-7-||-3-3-5-7-
 |-1-1-1-1-1-1-1-1-1-1-1-1-5-5-5-5-5-5-5-5-5-5-5-5-||-1---3-5-
 
 



Текст, аккорды и табулатура для песни "Danger Zone (tab)", исполняет "Black Sabbath".
Используемые в песне аккорды можно найти в разделе Как брать аккорды. Аккорды для шестиструнной гитары. Другие песни можно найти на нашем сайте, воспользовавшись алфавитным указателем вверху страницы.


 
Ошибка в тексте? Выделите ошибку и нажмите Ctrl+Enter