Country Girl
 Black Sabbath - Mob Rules (1981)
 
 ----------------------------|
 ----------------------------|
 ----------------------------|
 -5-5------------------------|
 |--5h7-7-5h7-----7-5h7p5----------------|
 -------------8---7---3---2--|
 
 
 ---------------------------------------|
 ---------------------------------------|
 ---------------------------------------|
 --------------------------------5------|
 ------------------------------------9--|
 |--5h7-7-7--5h7-8--7---5h7--8---7---8---7----------|
 
 
 --------------|
 |-----8--7--||-----8-----------------5------------|
 |---9-9--7--||-----9-----------------4------------|
 |--9--9--7--||---9-------7-5-------5--------------|
 |-7---9--5--||-7-------5-----54--3---------9-10-9-|
 -----7--------|
 
 		~~~~~~
 -----------------------------------------------------|
 -----------------121512--12--------------------------|
 -----------12-16^------14--1514p12-14-14p12--12------|
 --14---------------------------------------14--14p12-|
 |-12/14-1412----------------------------------------------------|
 -----------------------------------------------------|
 
 
 --------------------------------------------|
 ------------------------------121515----15^-|
 ------------14^1412------12h14-------16^----|
 -------------------141414-------------------|
 |-14p12h14p12 14^^14------------------------------------|
 --------------------------------------------|
 
 
 |-15-121512----------------------------------------------------|
 15p12-15p12--121512--------------------------------|
 -----------14-------141214121412-------------------|
 --------------------------------14121412-----------|
 ----------------------------------------1412141210-|
 ---------------------------------------------------|
 
 
 
 



Текст, аккорды и табулатура для песни "Country Girl (tab)", исполняет "Black Sabbath".
Используемые в песне аккорды можно найти в разделе Как брать аккорды. Аккорды для шестиструнной гитары. Другие песни можно найти на нашем сайте, воспользовавшись алфавитным указателем вверху страницы.


 
Ошибка в тексте? Выделите ошибку и нажмите Ctrl+Enter