Children Of The Sea - Bass
 Black Sabbath - Heaven And Hell (1980)
 
 
 |----9-10-10h12----14-12-10-12--10-9-10--9----9----109----
 |-12--------------------12-----------------12---12---------
 |-------------------------------------------------------5-
 |----------------------------------------------------------
 ...on the edge of time"            "weve lost the rising sun"
 |------------10-9----9-------------------------------------
 |-------10h12-----12---10----------------------------------
 |-5-5--------------------108-7-5---------5-------5-5------
 |----------------------------------------------------------
                  "as the misty morning"
 |---------------------------------10-9----9----------------
 |-2-3-5----3p2-------------------------12---10-------------
 |-------3------5--------5-5--------------------108-7-5----
 |----------------------------------------------------------
 
 |----------------------------------------------------------
 |-----------------------------------------4-7-------------
 |--------------2h3-2h3-------------2-5--5------------------
 |-5---5-5---------------5---5-5--3-------------------------
 
 |---------------------------------4-7---------------------
 |-------------------------------5--------4-7--------------
 |--------------2h3-2h3-----------------5-------------------
 |-5---5-5---------------5---5-5----------------------------
 "we sail across the air.,."
 |----------------------------------------------------------
 |-----------------------------------------4-7-------------
 |--------------2h3-2h3-------------2-5--5------------------
 |-5---5-5---------------5---5-5--3-------------------------
 "we thought that it could..."
 |----------------------------------------------------------
 |-------------------------------7-5------------------------
 |--------------2h3-2h3--------------7-5-7-5----------------
 |-5---5-5---------------5---5-5-------------8-7------------
 "we glide above the ground..."
 |----------------------------------------------------------
 |-----------------------------------------4-7-------------
 |--------------2h3-2h3-------------2-5--5------------------
 |-5---5-5---------------5---5-5--3-------------------------
 "now it seems our world has come undone"
 |----------------------------------------------------------
 |-------------------------------------------5-7------------
 |--------------2h3-2h3------------------5-7----------------
 |-5---5-5---------------5---5-5--5-7-8---------------------
 "oh they say, that its over"
 |----------------------------------------------------------
 |----------------------------------------------------------
 |-3----3---3h(5)----2-3-5--------3-2-------2-3-5-3--------
 |---------------3-5-------5--5-5------5-3-5----------------
 "and it just had to be"             "ooh they say..."
 |-------------------5-4-------------------------------------------
 |-----------------------7-5-7-5---5-------------------------------
 |-3-----------------------------7----3----3-3------------3-5-7----
 |-----3--0-3-5-3-5------------------------------3---3--5----------
 "were lost children..."
 |----------------------------------------------------------
 |----------------------------------------------------------
 |-3----3-3----3-----------3---3-3----------3-5-7-5---5-5---
 |----------------3----3-3----------3---3-3-----------------
 
 w/ solo:
 |------7--------------5------------4-----------------------
 |----7---7----------5---5--------4---4------------------7-7
 |-5--------5---3-3--------3-2-2--------2-------------------
 |----------------------------------------5-5--5-5--5-5-----
 
 |------------9--9-11-12-11-9-11--------------------------------
 |----------9---------------------------------------------------
 |-/7-7-5-7------------------------------5-------7-9-10-9-7-9---
 |-------------------------------7-7-5-7---7---7----------------
 
 |-----------9--9-11-12-11-9-11-----------------------------
 |---------9------------------------------------------------
 |-7-7-5-7------------------------------5-------10-9--------
 |------------------------------7-7-5-7---7---7-------------
 
 |-------------------------------------------------9-----------
 |-----------------------------------------4-5-----------------
 |-7-----7----7---7--------5----5-5---5-5------7-------7---7---
 |-----7----7---7---8-8--8-----------------------7---7---7-----
 
 |----------------------------------------------------------
 |----------------------------------------------------------
 |------7-5-------------------------------------------------
 |-8-8------------------------------------------------------
 
 
 w/acoustic part
 |---------------------------------------10-9----9----------------
 |--------------------------------------------12---12-------------
 |----------------------------------------------------108--------
 |-/10--10-10---10-10--13p12-10---10-10--------------------12-10--
 



Текст, аккорды и табулатура для песни "Children Of The Sea (btab)", исполняет "Black Sabbath".
Используемые в песне аккорды можно найти в разделе Как брать аккорды. Аккорды для шестиструнной гитары. Другие песни можно найти на нашем сайте, воспользовавшись алфавитным указателем вверху страницы.


 
Ошибка в тексте? Выделите ошибку и нажмите Ctrl+Enter