Can`t Get Close Enough
 Black Sabbath - Forbidden
 
 
 ---------------------------------------------------
 ---------------------------------------------------
 ---------------------------------------------------
 ---------------------------------------------------
 |------7-------7-------7-------7-------7-------7---------------
 |--5-5---4h5-4-4h5-5-5---4h5-4-4h5-5-5---4h5-4-4h5-5-----------
 
 
 ----------------------------------------------------
 ----------------------------------------------------
 ----------------------------------------------------
 |-----5-5-----5-------4-4-----4-------5-5-----5------4-4-----3--
 |-0-3-----3-3-----0-2-----2-2-----0-3-----3-3----0-2-----2-1----
 ----------------------------------------------------
 
 
 ----------------------------------------------------
 ----------------------------------------------------
 4-----5----/7--5-4-------2-----4-----5-----7/9-9-9-
 4-----5----/7--5-4-------2-----4-----5-----7/9-9-9-
 |-0-0---0-0---0-0---0-0-----------0-0---0-0---0-0---0-0---------
 ----------------------------------------------------
 
 
 cant get close enough to you...
 ---------------------------------------------------
 ---------------------------------------------------
 |-5---------4--------5---------4--3----------------------------
 |-5---------4--------5---------4--3----------------------------
 |-3--5-3-0--2----0-2-3--5-3-0--2--1----------------------------
 ---------------------------------------------------
 
 
 
 
 



Текст, аккорды и табулатура для песни "Can`t Get Close Enought", исполняет "Black Sabbath".
Используемые в песне аккорды можно найти в разделе Как брать аккорды. Аккорды для шестиструнной гитары. Другие песни можно найти на нашем сайте, воспользовавшись алфавитным указателем вверху страницы.


 
Ошибка в тексте? Выделите ошибку и нажмите Ctrl+Enter