Breakout
 Black Sabbath - Never Say Die (1978)
 
 
 -----------------------------------------------
 -----------------------------------------------
 -----------------------------------------------
 2--------------------------2-------------------
 |--2--4--5-------2------------2--4--5-------2--------------
 -----0--------------------------0--------------
 
 ---------------------
 ---------------------
 ---------------------
 |----------2----------7--5~~-----
 |-2--4--5-------2----------------
 ----0----------------
 
 -----------------------------------------------
 -----------------------------------------------
 -----------------------------------------------
 -2--5--4-----7--4-------------------2----------
 |---2--4--5-----------5--------5--7----2--4--5-------2-----
 -----------------------------------------0-----
 
 
 
 



Текст, аккорды и табулатура для песни "Breakout", исполняет "Black Sabbath".
Используемые в песне аккорды можно найти в разделе Как брать аккорды. Аккорды для шестиструнной гитары. Другие песни можно найти на нашем сайте, воспользовавшись алфавитным указателем вверху страницы.


 
Ошибка в тексте? Выделите ошибку и нажмите Ctrl+Enter