Song--------------|Whatever Happened To My Rock'N'Roll
By----------------|Black Rebel Motorcycle Club
Alum--------------|Black Rebel Motorcycle Club

tabbed bt TomAnthony

^=hammer on
/=slide up

Intro (w/distortion)
G-------17---------17---------17---20-17-------|
D--19-19--19--19-19--19--19-19--19------19-17--|
A---0--0---0---0--0---0---0--0-----------0--0--|
E----------------------------------------------|

G-------17---------17---------17---20-17-------|
D--19-19--19--19-19--19--19-19--19------19-17--|
A---0--0---0---0--0---0---0--0-----------0--0--|
E----------------------------------------------|

G-------17---------17---------17---20-17-------|
D--19-19--19--19-19--19--19-19--19------19-17--|
A---0--0---0---0--0---0---0--0-----------0--0--|
E----------------------------------------------|

G-------17---------17---------17---20-17-------|
D--19-19--19--19-19--19--19-19--19------19-17--|
A---0--0---0---0--0---0---0--0-----------0--0--|
E----------------------------------------------|

G--------------------------20-17---------------|
D-------------------------------19-17----------|
A-0-0-0-0--0-0-0-0--0-0-0-0--------------------|
E----------------------------------------------|

G--------------------------20-17---------------|
D-------------------------------19-17----------|
A-0-0-0-0--0-0-0-0--0-0-0-0--------------------|
E----------------------------------------------|

G--------------------------20-17---------------|
D-------------------------------19-17----------|
A-0-0-0-0--0-0-0-0--0-0-0-0--------------------|
E----------------------------------------------|

G--------------------------20-17---------------|
D-------------------------------19-17----------|
A-0-0-0-0--0-0-0-0--0-0-0-0--------------------|
E----------------------------------------------|

Verse
G--------------------------20-17---------------|
D-------------------------------19-17----------|
A-0-0-0-0--0-0-0-0--0-0-0-0--------------------|
E----------------------------------------------|

G----------------------------------------------|
D----------------------------------------------|
A-0-0-0-0--0-0-0-0--0-3-3-3--3-5-5-3-----------|
E----------------------------------------------|

G--------------------------20-17---------------|
D-------------------------------19-17----------|
A-0-0-0-0--0-0-0-0--0-0-0-0--------------------|
E----------------------------------------------|

G----------------------------------------------|
D----------------------------------------------|
A-0-0-0-0--0-0-0-0--0-0-0-0--5-5-5-3-----------|
E----------------------------------------------|

Chorus
G-------------------------------------------------------------------|
D-------------------------------------------------------------------|
A--------------------------------0-0-0-0--0-0-0-0--0-0-0-0--0-0-0-0-|
E-3-3-3-3-3-3-3-3-2-2-2-2-1-1-0-0-----------------------------------|

G-------------------------------------------------------------------|
D-------------------------------------------------------------------|
A--------------------------------0-0-0-0--0-0-0-0--0-0-0-0--0-0-0-0-|
E-3-3-3-3-3-3-3-3-2-2-2-2-1-1-0-0-----------------------------------|

Interlude
G--------------------------------------------------|
D-17^19-19-19--19-19-19-19--19---------------------|
A-----------------------------3-3-3--5-5-5-3-------|
E--------------------------------------------------|

G--------------------------------------------------|
D-17^19-19-19--19-19-19-19--19---------------------|
A-----------------------------3-3-3--3/5-5-3-------|
E--------------------------------------------------|

G-------------------------------------------------------------------|
D-------------------------------------------------------------------|
A-5-5-5-5-5-5-5-5--3-3-3-3-3-3-3-3--0-0-0-0-0-0-0-0-0-0-0-0-0-0-0-0-|
E-------------------------------------------------------------------|

G-------------------------------------------------------------------|
D-------------------------------------------------------------------|
A-5-5-5-5-5-5-5-5--3-3-3-3-3-3-3-3--0-0-0-0-0-0-0-0-0-0-0-0-0-0-0-0-|
E-------------------------------------------------------------------|

G-------------------------------------------------------------------|
D-------------------------------------------------------------------|
A-5-5-5-5-5-5-5-5--3-3-3-3-3-3-3-3--0-0-0-0-0-0-0-0-0-0-0-0-0-0-0-0-|
E-------------------------------------------------------------------|

G-------------------------------------------------------------------|
D-------------------------------------------------------------------|
A-5-5-5-5-5-5-5-5--3-3-3-3-3-3-3-3--0-0-0-0-0-0-0-0-0-0-0-0-0-0-0-0-|
E-------------------------------------------------------------------|

Outro
G--------------------------------------------------|
D-17^19-19-19--19-19-19-19--19---------------------|
A-----------------------------3-3-3--5-5-5-3-------|
E--------------------------------------------------|

G--------------------------------------------------|
D-17^19-19-19--19-19-19-19--19---------------------|
A-----------------------------3-3-3--3/5-5-3-------|
E--------------------------------------------------|

G--------------------------------------------------|
D-17^19-19-19--19-19-19-19--19---------------------|
A-----------------------------3-3-3--5-5-5-3-------|
E--------------------------------------------------|

G--------------------------------------------------|
D-17^19-19-19--19-19-19-19--19---------------------|
A-----------------------------3-3-3--3/5-5-3-------|
E--------------------------------------------------|

G--------------------------------------------------|
D-17^19-19-19--19-19-19-19--19---------------------|
A-----------------------------3-3-3--5-5-5-3-------|
E--------------------------------------------------|

G--------------------------------------------------|
D-17^19-19-19--19-19-19-19--19---------------------|
A-----------------------------3-3-3--3/5-5-3-------|
E--------------------------------------------------|

G--------------------------------------------------|
D-17^19-19-19--19-19-19-19--19---------------------|
A-----------------------------3-3-3--5-5-5-3-------|
E--------------------------------------------------|

G--------------------------------------------------|
D-17^19-19-19--19-19-19-19--19---------------------|
A-----------------------------3-3-3--3/5-5-3-------|
E--------------------------------------------------|

G--------------------------------------------------|
D--------------------------------------------------|
A-0------------------------------------------------|
E--------------------------------------------------|

G---------------------------------------------------|
D---------------------------------------------------|
A-5-------------3-----------0-----------------------|
E---------------------------------------------------|

G---------------------------------------------------|
D---------------------------------------------------|
A-5-------------3-----------0-----------------------|
E---------------------------------------------------|

G---7-9---7--------5-4------------------------------|
D--7---7---7------5---5-5---------------------------|
A-5-----5-------3---3--3----0-----------------------|
E---------------------------------------------------|

G---7-9---7--------5-4------------------------------|
D--7---7---7------5---5-5---------------------------|
A-5-----5-------3---3--3----0-----------0-----------|
E---------------------------------------------------|

Fin~

questions at [email protected]


Текст, аккорды и табулатура для песни "Whatever Happened To My Rock N Roll", исполняет "Black Rebel Motorcycle Club".
Используемые в песне аккорды можно найти в разделе Как брать аккорды. Аккорды для шестиструнной гитары. Другие песни можно найти на нашем сайте, воспользовавшись алфавитным указателем вверху страницы.


 
Ошибка в тексте? Выделите ошибку и нажмите Ctrl+Enter