#----------------------------------PLEASE NOTE--------------------------------#
#This file is the author's own work and represents their interpretation of the#
#song. You may only use this file for private study, scholarship, or research.#
#-----------------------------------------------------------------------------#


Tabbed by: DxL - [email protected] - AIM: dxlogan187 - MSN: [email protected]

By The way, if you didn't know, T.A.Z.= The Alcoholic Zone

Standard tuning

-0---------3-33|-33333333333333333333333333333333333333333333333333333333-----|
--0------------|--pick-light-then-hard-then-light-etc.-(listen-for-timing)----|
---3-----------|--------------------------------------------------------------|
----2----------|--------------------------------------------------------------|
-----2---------|--------------------------------------------------------------|
------0--------|--------------------------------------------------------------|
 rake up
                                    x2                x2
-3p0---3p0----|-3p0-------------------|-3p0-------------|-3p0-----------------|
----3p0---3p0-|----3p0---3p0---3p0----|----3p0---3p0----|----3p0---3p0---3p0--|
--------------|-------2p0---2p0---2p0-|-------2p0---2p0-|-------2p0---2p0-----|
--------------|-----------------------|-----------------|---------------------|
--------------|-----------------------|-----------------|---------------------|
--------------|-----------------------|-----------------|---------------------|
                                                    x2
--------------------------|---------------------------|
--------------------------|---------------------------|
-2p0---2p0---2p0---2p0----|-2p0---2p0---2p0---2p0-3p0-|
----2p0---2p0---2p0---2p0-|----2p0---2p0---2p0--------|
--------------------------|---------------------------|
--------------------------|---------------------------|

-----------------------------|----------------------------|-------------------|
-----------------------------|----------------------------|-------------------|
-2p0---3p0-4p0-2p0---4p0-3p0-|-2p0---4p0-3p0-2p0---2p0----|-------------------|
----3p0-----------3p0--------|----3p0-----------3p0---2p0-|----2p0---2p0------|
-----------------------------|----------------------------|-2p0---2p0---2p0---|
-----------------------------|----------------------------|-------------------|

               x3
-----------------|--------------------------|---------------------------------|
-----------------|--------------------------|---------------------------------|
-2p0-------------|--------------------------|---------------------------------|
----2p0---2p0----|-3p0---3p0---3p0---3p0----|-3p0---2p0---2p0---2p0-----------|
-------2p0---2p0-|----2p0---2p0---2p0---2p0-|----2p0---2p0---2p0---2p0--------|
-----------------|--------------------------|---------------------------------|

                                          x4
-----------------|--------------------------|---------------------------------|
-----------------|--------------------------|---------------------------------|
-2p0-------------|--------------------------|---------------------------------|
----2p0---2p0----|--------------------------|---------------------------------|
-------2p0---2p0-|--0h1p0-0h1p0-0h1p0-0h1p0-|--0h1p0-00000--------------------|
-----------------|-3-----3-----3-----3------|-3-----3-----0h1h2h3-------------|


-------------------------------------|-----------------------|
-------------------------3h4---3-----|-----------------------|
---------------------------------3h4-|-2h3-0h1-0-------------|
------------0h1h2-0h1h2/4----4-------|--------2-1h2-0h1-0----|
-0h1h2-0h1h2-------------------------|-----------------2-1h2-|
-------------------------------------|-----------------------|

-------------------------------------|-----------------------|
-------------------------4h5---4-----|-----------------------|
-----------------------------5---4h5-|-3h4-1h2-1-------------|
------------0h1h2-0h1h2/5------------|--------3-2h3-1h2-1----|
-0h1h2-0h1h2-------------------------|-----------------3-2h3-|
-------------------------------------|-----------------------|

-------------------------------------|-----------------------|
-------------------------5h6---5-----|-----------------------|
-----------------------------6---5h6-|-4h5-2h3-2-------------|
------------1h2h3-1h2h3/6------------|--------4-3h4-2h3-2----|
-1h2h3-1h2h3-------------------------|-----------------4-3h4-|
-------------------------------------|-----------------------|

-------------------------------------|-----------------------|
-------------------------6h7---6-----|-----------------------|
-----------------------------7---6h7-|-5h6-3h4-3-------------|
------------2h3h4-2h3h4/7------------|--------5-4h5-3h4-3----|
-2h3h4-2h3h4-------------------------|-----------------5-4h5-|
-------------------------------------|-----------------------|

-----------------------------------|---------------------------------|
-----------------------------------|---------------------------------|
-----------------------------------|---------------------------------|
------------3h4h5-3h4h5------------|-0h2-0h2-5p0-2p0-0h2-0h2-5p0-2p0-|
-3h4h5-3h4h5-----------------------|---------------------------------|
------------------------0-let-ring-|---------------------------------|

--------------------------------|---------------------------------|
--------------------------------|---------------------------------|
-----------------3p0-2p0--------|---------------------------------|
-0h2-0h2-5p0-2p0--------5p0-2p0-|-0h2-0h2-5p0-2p0-0h2-0h2-5p0-2p0-|
--------------------------------|---------------------------------|
--------------------------------|---------------------------------|


---------------------------------|---------------------------------|
---------------------------------|---------------------------------|
---------------------------------|-----------------0h2-0h2-4p0-2p0-|
---------------------------------|-0h2-0h2-5p0-2p0-----------------|
-0h2-0h2-5p0-2p0-5p0-6p0-7p0-6p0-|---------------------------------|
---------------------------------|---------------------------------|

---------------------------------|---------------------------------|
---------------------------------|---------------------------------|
---------------------0---2p0---0-|---------------------------------|
-----0---2p0---0-2/4---4-----0---|----------------0h2-0h2-5p0---0--|
-2h5---5-----5-------------------|-0h3-0h3-5p0-3p0------------0----|
---------------------------------|---------------------------------|

1st time                          2nd time
---------------------------------|---------------------------------|
---------------------------------|---------------------------------|
---------------------------------|---------------------------------|
-------------------------4p0---0-|-------------------------4p0-----|
-0h2-0h2-4p0-2p0-4h6-5h6-----0---|-0h2-0h2-4p0-2p0-4h6-5h6---------|
---------------------------------|-----------------------------0---|

                               x8                                  x4
---------------------------------|-----------------------------------|
---------------------------------|-----------------------------------|
---------------------------------|-----------------------------------|
---------------------------------|-0h2-0h2-5p0h2-4p0---3p0---2p0h1p0-|
-7p0-5p0-7p0-5p0h2-5p0h2-5p0h2---|-------------------5-----4---------|
----0---0---0--------------------|-----------------------------------|

                         x9                          x7
---------------------------|-----partially-muted-------|
-pick-light-then-heavy-etc-|---------------------------|
---------------------------|-2-0---------2-0-----------|
-2-0---2-0---2-0---2-0-----|-------2-0---------2-0-----|
-----4-----4-----4-----4---|-----4-----4-----4-----4---|
---------------------------|---------------------------|

                      x10 (slower the last 2 times)
-------------------------|
-------------------------|
-2p0---------2p0---------|
-------2p0---------2p0---|
-----4-----4-----4-----4-|
-------------------------|

end with                                      let ring...........
-----------------------------------|--------------------------0----|
-----------------------------------|------------------------0------|
-2-p-0-----------2-p-0-------------|----------------------3--------|
---------2-p-0-----------2-p-0---0-|--------------------2----------|
-------4-------4-------4-------4---|-4-1-0-1-0--------2------------|
-----------------------------------|-----------3b--0---------------|


Текст, аккорды и табулатура для песни "Taz", исполняет "Black Label Society".
Используемые в песне аккорды можно найти в разделе Как брать аккорды. Аккорды для шестиструнной гитары. Другие песни можно найти на нашем сайте, воспользовавшись алфавитным указателем вверху страницы.


 
Ошибка в тексте? Выделите ошибку и нажмите Ctrl+Enter