Black Label Society: Super Terrorizer
Tabbed by: Unknown
Tune to drop D.

Intro
E--------------------------------------------------------------------|
B--------------------------------------------------------------------|
G--------------------------------------------------------------------|
D-----------------------------------6-----5-----2-3---3-2---5-6-5-6--|
A----3-4-5-----------3--------------6-----5-----2-3---3-2---5-6-5-6--|
D----------3-4-5-6-7---6-5-3-0-3-0--6-0-0-5-0-0-2-3-0-3-2-0-5-6-5-6--|

E----------------------------------------------------------------|
B----------------------------------------------------------------|
G----------------------------------------------------------------|
D-----------------------------------6-----5-----2-3---3-2---5-5--|
A----3-4-5-----------3--------------6-----5-----2-3---3-2---5-5--|
D----------3-4-5-6-7---6-5-3-0-3-0--6-0-0-5-0-0-2-3-0-3-2-0-5-5--| 

E--------------------------------------------------------------------|
B--------------------------------------------------------------------|
G--------------------------------------------------------------------|
D-----------------------------------6-----5-----2-3---3-2---5-6-5-6--|
A----3-4-5-----------3--------------6-----5-----2-3---3-2---5-6-5-6--|
D----------3-4-5-6-7---6-5-3-0-3-0--6-0-0-5-0-0-2-3-0-3-2-0-5-6-5-6--|

E--------------------------------------------------|
B--------------------------------------------------|
G--------------------------------------------------|
D-----------------------------------6-----5-----2--|
A----3-4-5-----------3--------------6-----5-----2--|
D----------3-4-5-6-7---6-5-3-0-3-0--6-0-0-5-0-0-2--|


Текст, аккорды и табулатура для песни "Super Terrorizer", исполняет "Black Label Society".
Используемые в песне аккорды можно найти в разделе Как брать аккорды. Аккорды для шестиструнной гитары. Другие песни можно найти на нашем сайте, воспользовавшись алфавитным указателем вверху страницы.


 
Ошибка в тексте? Выделите ошибку и нажмите Ctrl+Enter