black label society
super terrorizer


tuning: Drop D
all XXXXXX are rakes of the part of the string that lies between the bridge
and the saddle.

--------------------------------------------------------------------|-x-------
--------------------------------------------------------------------|--x------
-----ph-------------------------------------------------------------|---x-----
-------------------------ph--ph--6-----5-----2/3---3-2---5/6-5/6----|----x----
--3-4-5-------------3------------6-0-0-5-0-0-2/3-0-3-2-0-5/6-5/6----|-----x---
--------3-4-5-5-6-7---6-5-3-0-3--6-0-0-5-0-0-2/3-0-3-2-0-5/6-5/6----|------x--
  intro and chorus riff                                                       

1,3			   2		   4                  
--------------------------|---------------|------x------------x---------------
--------------------------|---------------|-------x------------x--------------
--------------------------|---------------|--------x------------x-------------
--------------------------|---------------|---------x------------x------------
-0-0-0-0-1-0--0-0-0-0-1-0-|0--0-----------|----------x------------x-----------
-0-0-0-0-1-0--0-0-0-0-1-0-|0--0-/10-12-10-|-0-00------x--0-00------x----------
                                                                              

------------------------------------------------------------------------------
------------------------------------------------------------------------------
------------------------------------------------------------------------------
------------6-5---------------------------------------------------------------
------------6-5---------------------------------------------------------------
-12-11-10-7-6-5---0-0-0-0-1-0--0-0-0-0-1-0--0-0-/10-12-10---------------------
 verse riff                                                                   

---------------------|----------------|---------------------------------------
---------------------|----------------|---------------------------------------
---------------------|----------------|---------------------------------------
-0--------3-5----3-5-|2------7-5--7-5-|4------9-7--9-7------------------------
-0--------3-5----3-5-|2------7-5--7-5-|4------9-7--9-7------------------------
-0--------3-5-00-3-5-|2------7-5--7-5-|4------9-7--9-7------------------------
 solo backing (unfinished)                                                    




Lead:
By Skull Dragon

E|-----------------------------------------------------------------------------
B|--12----------------12-------------------------------------------------------
G|-----15-14-12----------15-14-12----------------------------------------------
D|--------------14-12-------------14-12----------------------------------------
A|-----------------------------------------------------------------------------
D|-----------------------------------------------------------------------------

  |-------------------tr--------------------------|

E|-------------------------0-3-0-3-0-3-----------------------------------------
B|-------------0-3-0-3-0-3-------------0-3-0-3-0-3-----------------------------
G|-0-3-0-3-0-3-----------------------------------------------------------------
D|-----------------------------------------------------------------------------
A|-----------------------------------------------------------------------------
D|-----------------------------------------------------------------------------

                |---tr----|           |---tr-------|  

E|--------------------------0-3-0-3-0------------------------------------------
B|--------------0-3-0-3-0-3-----------3-0-3-0-3-0-3----------------------------
G|--0-3-3-3-0-3----------------------------------------------------------------
D|-----------------------------------------------------------------------------
A|-----------------------------------------------------------------------------
D|-----------------------------------------------------------------------------

E|------------------------0---X-X----------------------------------------------
B|--------------0-3-3-0-3------------------------------------------------------
G|--0-3-0-3-0-3--------------------2-2---2-------------------------------------
D|-----------------------------------------------------------------------------
A|-----------------------------------------------------------------------------
D|-----------------------------------------------------------------------------

E|--14----------------14----------------14--------------14---------------------
B|-----17-14-------------17-14-------------17-14-----------17-14--------17-----
G|-----------17~~~--------------16~~~------------15~~~-----------14~~----------
D|-----------------------------------------------------------------------------
A|-----------------------------------------------------------------------------
D|-----------------------------------------------------------------------------

                  /----   /-----

E|--14------------17--17-------------------------------------------------------
B|-----17-14--------------17----17----17-17------------------------------------
G|-----------17~----------17----17----------17-17--14--------------------------
D|-----------------------------------------------------------------------------
A|-----------------------------------------------------------------------------
D|-----------------------------------------------------------------------------

E|-----------------------------------------------------------------------------
B|------------15-20-15----15-20-15----15-20-15---------------------------------
G|-16-14--18-----------18----------18----------18------------------------------
D|-----------------------------------------------------------------------------
A|-----------------------------------------------------------------------------
D|-----------------------------------------------------------------------------

E|-----------------------------------------------------------------------------
B|--17-22-17----17-22-17----17-22--17------------------------------------------
G|-----------20----------20-----------20---------------------------------------
D|-----------------------------------------------------------------------------
A|-----------------------------------------------------------------------------
D|-----------------------------------------------------------------------------


Текст, аккорды и табулатура для песни "Super Terrorizer", исполняет "Black Label Society".
Используемые в песне аккорды можно найти в разделе Как брать аккорды. Аккорды для шестиструнной гитары. Другие песни можно найти на нашем сайте, воспользовавшись алфавитным указателем вверху страницы.


 
Ошибка в тексте? Выделите ошибку и нажмите Ctrl+Enter